Guitaretab - guitar tabs
Song name
# A B C D E F G H I J K L M N O P Q R S T U V W X Y Z

Killswitch Engage - For You tab

-----------------------------------------------------------------------
			     For You (Interlude)  Killswitch Engage
-----------------------------------------------------------------------

Tabbed by: Andrew Mckenzie
Email: necxe1726412@yahoo.com

Tuning: Drop C
Palm muting - *

Comes in shortly after second chorus
4x
|---------------------------------------------------|
|---------------------------------------------------|
|-----10---10-7-----7---7-------7---7-------5---5---|
|---8-------------8-------8---8-------8---8-------8-|
|-6------6------6-----6-----6-----6-----6-----6-----|
|---------------------------------------------------|
  * *    *      * *   *     * *   *     * *   *
[ Tab from: http://www.guitaretab.com/k/killswitch-engage/148300.html ]
|-------------------------------------------------||
|-------------------------------------------------||
|-----------------7---7-------7---7---------------||
|-----7---7h8---8-------8---8-------8-----7---7h8-||
|-5-5---5-----5-----5-----5-----5-----5-5---5-----||
|-------------------------------------------------||
  * *   *     * *   *     * *   *     * *   *

|__________________________________________________|
              |
that second part may actually be what I have shown below, I cannot hear exactly which it
but I am pretty sure it is the first one I have shown.

|-------------------------------------------------||
|-------------------------------------------------||
|---------------------7-----------7---------------||
|-----7---7h8-----8-----8-----8-----8-----7---7h8-||
|-5-5---5-----5-5---5-----5-5---5-----5-5---5-----||
|-------------------------------------------------||
  * *   *     * *   *     * *   *     * *   *

| /  slide up
| \  slide down
| h  hammer-on
| p  pull-off
| ~  vibrato
| +  harmonic
| *  Mute note
Related for For You tab