Song name
# A B C D E F G H I J K L M N O P Q R S T U V W X Y Z

Killswitch Engage - My Curse tab

----------------------------------------------------------------------------
			    MY CURSE - KILLSWITCH ENGAGE
----------------------------------------------------------------------------Tabbed 
Shrum
Email:myspace.com/onlycowboysgetcolencancer

Tuning:CGCFAD
============================================================================
                        Intro
============================================================================
D|-------------------------------------------------|---------------------0-|
A|------11---------11-------------6------------6---|-------6----------6---6|
F|--10-----10-10-------10------5-------5---5-------|-5---5-------5---5-----|
C|-8--8---8--8--8-----8-----8----8---8---8---8---8-|7---7---7---7---7------|
G|-------------------------------------------------|-----------------------|
C|-------------------------------------------------|--------( x2)----------|
part one adam dutcawics
|
D|-------------------------------------------------------------------------|
A|-------------------------------------------------------------------------|
F|-10-------------7------------7-------------------------------------------|
C|-10-------------7------------7-------------------------------------------|
G|-8--let ring----5-let ring---0--let ring---------------------------------|
C|-8--------------5------------0-------------------------------------------|
part two joel strutsel


============================================================================
play that (x2)
============================================================================
same thing in with distortion

D|-------------------------------------------------|---------------------0-|
A|------11---------11-------------6------------6---|-------6----------6---6|
F|--10-----10-10-------10------5-------5---5-------|-5---5-------5---5-----|
C|-8--8---8--8--8-----8-----8----8---8---8---8---8-|7---7---7---7---7------|
G|-------------------------------------------------|-----------------------|
C|-------------------------------------------------|--------( x2)----------|
   x  x   x  x  x     x     x    x   x   x   x   x  x   x   x   x   x
part one adam dutcawics
(adams part with distortion is picked on and off with palm mutes)
D|-------------------------------------------------------------------------|
A|-------------------------------------------------------------------------|
F|--------10--------------------7-------------------7----------------------|
C|--------10--------------------7-------------------7----------------------|
G|0000000-8--let ring-0000000---5-let ring0000000---0--let ring------------|
C|0000000-8-----------0000000---5---------0000000---0----------------------|
  xxxxxxx             xxxxxxx             xxxxxxx
part two joel strutsel

============================================================================
                verse 1#
============================================================================

|---------------------------------------------------------------------|
|---------------------------------------------------------------------|
|---------------------------------------------------------------------|
|-5----3------------------------------------------(x10)---------------|
|-5----3------------------5-------------------------------------------|
|---00---/6-00-5-00-3p0-/7-7-5-6-5-0-3h5------------------------------|

on the sencond time pinch harmonic the last note
============================================================================
breakdown versy thing
============================================================================

|----------------------------------------------------------------------|
|----------------------------------------------------------------------|
|----------------------------------------------------------------------|
|----------------------------------------------------------------------|
|----------------------------------------------------------------------|
|000-000-000-000-3p0-0000--3p0-0000-000-000-000-000-3p0-0000-3p0-------|

|------------------------------------------------|
|------------------------------------------------|
|------------------------------------------------|
|------------------------------------------------|
|--------------------5---------------------------|
|---/6-00-5-00-3p0-/7-7-5-6-5-0-3h5--------------|

============================================================================
chorus
============================================================================

D|-------------------------------------------------|---------------------0-|
A|------11---------11-------------6------------6---|-------6----------6---6|
F|--10-----10-10-------10------5-------5---5-------|-5---5-------5---5-----|
C|-8--8---8--8--8-----8-----8----8---8---8---8---8-|7---7---7---7---7------|
G|-------------------------------------------------|-----------------------|
C|-------------------------------------------------|--------( x2)----------|
   x  x   x  x  x     x     x    x   x   x   x   x  x   x   x   x   x
part one adam dutcawics


D|-------------------------------------------------------------------------|
A|-------------------------------------------------------------------------|
F|--------10--------------------7-------------------7----------------------|
C|--------10--------------------7-------------------7----------------------|
G|0000000-8--let ring-0000000---5-let ring0000000---0--let ring------------|
C|0000000-8-----------0000000---5---------0000000---0----------------------|
  xxxxxxx             xxxxxxx             xxxxxxx
part two joel strutsel

============================================================================
back to verse only its numre 2
============================================================================


|---------------------------------------------------------------------|
|---------------------------------------------------------------------|
|---------------------------------------------------------------------|
|-5----3-----------------------------------------------(x4)-----------|
|-5----3------------------5-------------------------------------------|
|---00---/6-00-5-00-3p0-/7-7-5-6-5-0-3h5------------------------------|

sqeel on the last note on 2nd time around

============================================================================
breakdown versy thing
============================================================================

|----------------------------------------------------------------------|
|----------------------------------------------------------------------|
|----------------------------------------------------------------------|
|----------------------------------------------------------------------|
|----------------------------------------------------------------------|
|000-000-000-000-3p0-0000--3p0-0000-000-000-000-000-3p0-0000-3p0-------|

|------------------------------------------------|
|------------------------------------------------|
|------------------------------------------------|
|------------------------------------------------|
|--------------------5---------------------------|
|---/6-00-5-00-3p0-/7-7-5-6-5-0-3h5--------------|

============================================================================
chorus
============================================================================

D|-------------------------------------------------|---------------------0-|
A|------11---------11-------------6------------6---|-------6----------6---6|
F|--10-----10-10-------10------5-------5---5-------|-5---5-------5---5-----|
C|-8--8---8--8--8-----8-----8----8---8---8---8---8-|7---7---7---7---7------|
G|-------------------------------------------------|-----------------------|
C|-------------------------------------------------|--------( x2)----------|
   x  x   x  x  x     x     x    x   x   x   x   x  x   x   x   x   x
part one adam dutcawics


D|-------------------------------------------------------------------------|
A|-------------------------------------------------------------------------|
F|--------10--------------------7-------------------7----------------------|
C|--------10--------------------7-------------------7----------------------|
G|0000000-8--let ring-0000000---5-let ring0000000---0--let ring------------|
C|0000000-8-----------0000000---5---------0000000---0----------------------|
  xxxxxxx             xxxxxxx             xxxxxxx
part two joel strutsel

============================================================================
bridge
============================================================================

in not sure about this part but it has these notes
in order not sure of rythum
|----------------------------------------------------------------------|
|----------------------------------------------------------------------|
|--14-15--12--10-------------------------------------------------------|
|----------------------------------------------------------------------|
|--12-13--10---8-------------------------------------------------------|
|----------------------------------------------------------------------|

============================================================================
verse 3
============================================================================


|--------------------------------|
|--------------------------------|
|------------10------------------|
|---------------8p7--------------|
|-88888888888------10p8-/5-------|
|-88888888888--------------------|
  xxxxxxxxxxx

|--------------------------------|
|--------------------------------|
|------------10------------------|
|---------------8p7--------------|
|-55555555555------10p8-/5-------|
|-55555555555--------------------|
  xxxxxxxxxxx

|--------------------------------|
|--------------------------------|
|------------10------------------|
|---------------8p7--------------|
|-00000000000------10p8-/5-------|
|-00000000000--------------------|
  xxxxxxxxxxx

|--------------------------------|
|--------------------------------|
|------------10------10----------|
|---------------8p7-----8p7------|
|-00000000000--------------------|
|-00000000000--------------------|
  xxxxxxxxxxx

|--------------------------------|
|--------------------------------|
|------------10------------------|
|---------------8p7--------------|
|-88888888888------10p8-/5-------|
|-88888888888--------------------|
  xxxxxxxxxxx

|--------------------------------|
|--------------------------------|
|------------10------------------|
|---------------8p7--------------|
|-55555555555------10p8-/5-------|
|-55555555555--------------------|
  xxxxxxxxxxx

|--------------------------------|
|--------------------------------|
|------------10------------------|
|---------------8p7--------------|
|-00000000000------10p8-/5-------|
|-00000000000--------------------|
  xxxxxxxxxxx

|--------------------------------|
|--------------------------------|
|------------10------10----------|
|---------------8p7-----8p7------|
|-00000000000--------------------|
|-00000000000--------------------|
  xxxxxxxxxxx

============================================================================
alt chorus(when adam sings and did i mention this dudes my hero)
============================================================================


|---------------------------------------|
|---------------------------------------|
|-----10~------7~--------7~-------------|
|-----10~------7~--------7~---(x2)------|
|---8--------5---------0----------------|
|-8--------5---------0------------------|

============================================================================chorus/verse/outro
============================================================================
play this from (3:17) till (4:04)
(3:17)

|--------------------------------|
|--------------------------------|
|------------10------------------|
|---------------8p7--------------|
|-88888888888------10p8-/5-------|
|-88888888888--------------------|
  xxxxxxxxxxx

|--------------------------------|
|--------------------------------|
|------------10------------------|
|---------------8p7--------------|
|-55555555555------10p8-/5-------|
|-55555555555--------------------|
  xxxxxxxxxxx

|--------------------------------|
|--------------------------------|
|------------10------------------|
|---------------8p7--------------|
|-00000000000------10p8-/5-------|
|-00000000000--------------------|
  xxxxxxxxxxx

|--------------------------------|
|--------------------------------|
|------------10------10----------|
|---------------8p7-----8p7------|
|-00000000000--------------------|
|-00000000000--------------------|
  xxxxxxxxxxx

|--------------------------------|
|--------------------------------|
|------------10------------------|
|---------------8p7--------------|
|-88888888888------10p8-/5-------|
|-88888888888--------------------|
  xxxxxxxxxxx

|--------------------------------|
|--------------------------------|
|------------10------------------|
|---------------8p7--------------|
|-55555555555------10p8-/5-------|
|-55555555555--------------------|
  xxxxxxxxxxx

|--------------------------------|
|--------------------------------|
|------------10------------------|
|---------------8p7--------------|
|-00000000000------10p8-/5-------|
|-00000000000--------------------|
  xxxxxxxxxxx

|--------------------------------|
|--------------------------------|
|------------10------10----------|
|---------------8p7-----8p7------|
|-00000000000--------------------|
|-00000000000--------------------|
  xxxxxxxxxxx

(4:02)
the end this is only my second tab this is perfectly right i play this the same way they 
thank you i feel like i have accompleshed somthing... not there will be more were that 
from
Tap to rate this tab
# A B C D E F G H I J K L M N O P Q R S T U V W X Y Z