Song name
# A B C D E F G H I J K L M N O P Q R S T U V W X Y Z

Killswitch Engage - Unbroken tab

I only tabbed one guitar because this my part when i play it in my band
well, here it is . so enjoy :)
.= palm mute
~=let ring
Intro/Verse

D-----------------------------------------------------------------------|
A-----------------------------------------------------------------------|
F-----------------------------------------------------------------------|
C-----------------------------------------------------------------------|
G-5---6---5---------5---3---------3---5---6---5---------5---3~0-0-0-0-0-|
C--0-0-0-0-0-0-5-0-0-0-0-0-0-3-0-0-0-0-0-0-0-0-0-0-5-0-0-0-0--0-0-0-0-0-|
   . . . . . .   . . . . . .   . . . . . . . . . .   . . . .  . . . . .
Verse (extended)

----------------------------------------|
----------------------------------------|
----------------------------------------|
-----------------------------7p5h7p5----|
-0-0-0-0-0-0-0-0-0-------8-7--------7/8-|
-0-0-0-0-0-0-0-0-0--(x3)-8-7------------|
 . . . . . . . . .

Pre-Chorus

---------------------------------|
---------------------------------|
-5/7-7-7-7-7-7-7-5-7-7-7-7-7-7-7-|
-x/x-x-x-x-x-x-x-x-x-x-x-x-x-x-x-|
-3/5-5-5-5-5-5-5-3/5-5-5-5-5-5-5-|
---------------------------------|

Chorus

--------------------------------------------------------------------------|
--------------------------------------------------------------------------|
-5/7-7-7-7-7-------------5/7-7-7-7-7-7------------7p5h7p5-5----------5----|
-x/x-x-x-x-x-------------x/x-x-x-x-x-x-------------------8-8-7-5-7-8--8-7-|
-3/5-5-5-5-5-0-0-0-0-0-0-3/5-5-5-5-5-5-0-0-0-0-0-0------------------------|
-------------0-0-0-0-0-0---------------0-0-0-0-0-0------------------------|
             . . . . . .               . . . . . .

Interlude

-------------------------------------------------|
-------------------------------------------------|
-------------------------------------------------|
-------------------------------------------------|
-------7----------7-----------8------------8-----|
-0-7h8--8p7-0-7h8--8p7-0-8h10--10p8-0-8h10--10p8-|

-------------------------------------------------------------|
-------------------------------------------------------------|
-------------------------------------------------------------|
-------------------------------------------------------------|
---------12--------------12-------------10------------10-----|
-0-10h12---12p10-0-10h12---12p10-0-8h10---10p8-0-8h10---10p8-|

Next bit (bridge?)

----------------------------------------------------|
----------------------------------------------------|
----------------------------------------------------|
-------8\7/8-------5/7/8-7--------------------------|
-------6\5/6-------3/5/6-5-----8-7-8-0-0-0-1h3/4-0~-|
-0~0-0-------0-0-0---------0-0-8-7-8-0-0-0-1h3/4-0~-|
   . .       . . .         . .       . . .
-----------------------------|
-----------------------------|
-----------------------------|
-----------------------------|
-0-0-0-0-0-0-1-1-1-1-1-1h3/4-|
-0-0-0-0-0-0-1-1-1-1-1-1h3/4-|
 . . . . . . . . . . .
---------------------------|
---------------------------|
---------------------------|
---------------------------|
-0-0-0-0-0-0-1-1-1-1-1h3/4-|
-0-0-0-0-0-0-1-1-1-1-1h3/4-|
 . . . . . . . . . .


SONG ORDER
INTRO/VERSE x2
VERSE (extended) x2
INTRO/VERSE x2
PRECHORUS
CHORUS x4
INTRO/VERSE x2
VERSE (extended)x2
CHORUS x4
INTERLUDE x4
BRIDGE (1st part) x 4
BRIDGE (2nd part) x2

have fun,
SAmuel :]
Tap to rate this tab
 
# A B C D E F G H I J K L M N O P Q R S T U V W X Y Z