Song name
# A B C D E F G H I J K L M N O P Q R S T U V W X Y Z

Killswitch Engage - The Element Of One tab

Before i get to the tabbing i just want to say that this is my first tab ever to be
on any website.  This is what i have heard by ear so if any one thinks something is missing
wrong please do so in a respectful manner. i welcome all corrections or comments but if 
start talking smack about my tab then i want to see your better version of this, which
probably wont have. one more thing PLZZZZ do not give me 5 stars if i dont deserve it. 
its one thing that i hate its ppl who give songs 5 stars either bcuz they dont want to 
feelings, etc.  I cant tell you how frustrating it is to look up songs that have 
5 stars and ur so excited only to b dissapointed to find like 3 0r 5 major errors in the song.
enough chitter chatter lets get on with the tab shall we? =]

*-palm mute
h-hammer on
p-pull off
~-let ring
!-see comment
/-slide
^-hold note down
intro:

Guitar 1
------------------------------------------------------------------|
------------------------------------------------------------------|
---5^-5-5-5-5-5~--5-5-5-5---5^-5-5-5-5-5--5-5-5-5----5^-5-5-5-5-5-|
--3^--3-3-3-3-3~--3-3-3-3--3^--3-3-3-3-3--3-3-3-3---3^--3-3-3-3-3-|
-1^-- 1-1-1-1-1~--1-1-1-1-1^---1-1-1-1-1--1-1-1-1--0^---0-0-0-0-0-|
--------------------------------------------------0^----0-0-0-0-0-|

guitar 2
-1~----------------------1~------------------------0~-------------|
-1~----------------------1~------------------------6~-------------|
-3~----------------------3~------------------------5~-------------|
-3~----------------------3~------------------------7~-------------|
-1~----------------------1~------------------------0~-------------|
-x-----------------------x-------------------------0~-------------|

guitar 1 cont
----------------------------------\--- \
-------------------------------------- \
-5-5-5-5----5^-5-5-5-5-5--5-5-5-5- --- \
-3-3-3-3---3^--3-3-3-3-3--3-3-3-3- --- \ X2
-0-0-0-0--0^---0-0-0-0-0--0-0-0-0----- \ /
-0-0-0-0-0^----0-0-0-0-0--0-0-0-0----- \

guitar 2 cont
---------0~-----------------------|
---------6~-----------------------|
---------5~-----------------------|
---------7~-----------------------|
---------0~-----------------------|
---------0~-----------------------|
Guitar 1:
-x^--x-----x-x--x--x-x-x-x--x---x-----------------\-- \
-x---x-----x-x--x--x-x-x-x--x---x-------------------- \
-x---x-----x-x--x--x-x-x-x--x---x----------------- -- \
-3~--3-----3-3--3--3-3-3-5--x---x---------------5- -- \X4
-1~--1-----1-1--1--1-1-1-3--0~--0--0-0-0-0--0-0-3---- \ /
-x---x-----x-x--x--x-x-x-x--0~--0--0-0-0-0--0-0------ \
           * *  *  *               * * * *

Guitar 2
-------------------------------------------------\-- \
-5-5-5-5-5-5-2-2-2-2-2-2-0-0-0-0-0-0-2-2-2-2-2-2---- \
-3-3-3-3-3-3-3-3-3-3-3-3-3-3-3-3-3-3-3-3-3-3-3-3- -- \
------------------------------------------------- -- \X4
---------------------------------------------------- \ /
---------------------------------------------------- \

guitar 3
-x--x--x--x--x--x--x--x--x--x--x--x--x--x--x--x--x--x--x--x--x--x--x---- \
-x--x--x--x--x--x--x--x--x--x--x--x--x--x--x--x--x--x--x--x--x--x--x--\- \
-10-10-10-10-10-10-10-10-10-10-10-10-10-10-10-10-10-14-14-14-14-14-14--- \
-x--x--x--x--x--x--x--x--x--x--x--x--x--x--x--x--x--x--x--x--x--x--x---- \ /X2 !
-8--8--8--8--8--8--8--8--8--8--8--8--8--8--8--8--8--12-12-12-12-12-12--- \
-x--x--x--x--x--x--x--x--x--x--x--x--x--x--x--x--x--x--x--x--x--x--x---- \

!(after you've played guitars one and twos parts twice)

verse
Guitar 1
--------------------------------------------------\--- \
------------------------------------------------------ \
-------------------------------------------------- --- \
--------------------------------------------7-----  /! \
-------5p0----------5p0---------5-----8p5-----8------- \ /
-0-3-7-----3--0-3-7-----3-0-5-8---8-5-----5-----5----- \
 * * *        * * *       * * *     *
!(Note that this section is only played once in the whole song which is here. the only
is the last 3 notes but if u play it like this during the other parts of the song it is
incorrect, and 2. doesnt sound right.)

Guitar 2
-------------------------------------------------|
-------------------------------------------------|
-------------------------------------------------|
-------------------------------------------------|
-0-0-0-------------------5-5-5-------------------|
-0-0-0-------------------5-5-5-------------------|
 * * *                   * * *

verse 1
Guitars 1 and 2
---------------------------------------------------\--- \
------------------------------------------------------- \
--------------------------------------------------- --- \
---------------------------------------------------  /! \
-------5p0---------5p0-----------5-----8p5---5--------- \ /
-0-3-7-----3--0-3-7-----3--0-5-8---8p5-----5---8p5----- \
 * * *        * * *        * * *           *


Guitars 1 and 2 cont
--------------------------------------------------|
--------------------------------------------------|
--------------------------------------------------|
--------------------------------------------------|
-------5p0---------5p0----3-3-3-3-3-3-1-1-1-1-1-1-|
-0-3-7-----3-0-3-7-----3--3-3-3---3-3-1-1-1---1-1-|
 * * *       * * *        * * *   * * * * *   * *
Guitars 1 and 2 cont
---------------------------------------------------|
---------------------------------------------------|
---------------------------------------------------|
---------------------------------------------------|
-------5p0----------5p0----------5-----8p5---5-----|
-0-3-7-----3--0-3-7-----3--0-5-8---8p5-----8---8p5-|
 * * *        * * *        * * *           *
Guitars 1 and 2 cont
--------------------------------------------------\--- \
------------------------------------------------------ \
-------------------------------------------------- --- \
--------------------------------------------------  /! \
-------5p0---------5p0----3-3-3-3-----1-1-1-1--------- \ /
-0-3-7-----3-0-3-7-----3--3-3-3---3-3-1-1-1---1-1----- \
 * * *       * * *        * * *       * * *
From the first ! mark to here is what you will be playing again when it says "verse 2"

verse cont: Guitars 1 and 2
-----------------------------------------------------------------\-- \
-------------------------------------------------------------------- \
----------------------------------------------------------------- -- \
---3---3---5---7-------------------3---3---5---7-------10-10/5-5- -- \X2
---1---0---3---5-------3-----------1---0---3---5-------8--8-/3-3---- \ /
-0---0---0---0---0-0-0-3-0-0-0-0-0---0---0---0---0-0-0-------------- \
 *   *   *   *   * * *   * * * * *   *   *   *   * * *


verse cont:
Guitar 1 and 2 cont
-----------------------------------------------------------------\-- \
-------------------------------------------------------------------- \
----------------------------------------------------------------- -- \
---3---3---5---7-------------------3---3---5---7-------10-10/5-5- -- \X4
---1---0---3---5-------3-----------1---0---3---5-------8--8-/3-3---- \ /
-0---0---0---0---0-0-0-3-0-0-0-0-0---0---0---0---0-0-0-------------- \
 *   *   *   *   * * *   * * * * *   *   *   *   * * *

Guitar 2:
----------------------------------------------------------------------\-- \
------------------------------------------------------------------------- \
-7-7-7-7-7-7-7-7-7-7-7-7-7-7-7-7-7-7-7-7-7-7-7-7/10101010101010101010- -- \
-x-x-x-x-x-x-x-x-x-x-x-x-x-x-x-x-x-x-x-x-x-x-x-x-x-x-x-x-x-x-x-x-x-x-  /! \
-5-5-5-5-5-5-5-5-5-5-5-5-5-5-5-5-5-5-5-5-5-5-5-5/8-8-8-8-8-8-8-8-8-8----- \ /
-x-x-x-x-x-x-x-x-x-x-x-x-x-x-x-x-x-x-x-x-x-x-x-x-x-x-x-x-x-x-x-x-x-x----- \

Guitar 2 cont:
-------------------------------------------|
-------------------------------------------|
-10-10-10-10-10-10-10-10-10-10-10-10-10-10-|
-x--x--x--x--x--x--x--x--x--x--x--x--x--x--|
-8--8--8--8--8--8--8--8--8--8--8--8--8--8--|
-x--x--x--x--x--x--x--x--x--x--x--x--x--x--|

guitar 3: (! also play this after you have played guitars one and two's parts twice)

-------------------------------------------------------------------------|
-------------------------------------------------------------------------|
-10101010100101010101010101010101010101010101010/14-14-14-14-14-14-14-14-|
-x-x-x-x-x-x-x-x-x-x-x-x-x-x-x-x-x-x-x-x-x-x-x-x--x--x--x--x--x--x--x--x-|
-8-8-8-8-8-8-8-8-8-8-8-8-8-8-8-8-8-8-8-8-8-8-8-8/12-12-12-12-12-12-12-12-|
-x-x-x-x-x-x-x-x-x-x-x-x-x-x-x-x-x-x-x-x-x-x-x-x--x--x--x--x--x--x--x--x-|

guitar 3 cont:

-------------------------------------------------|
-------------------------------------------------|
-14-14-14-14-14-14-14-14-14-14-14-14-14-14-14-14-|
--x--x--x--x--x--x--x--x--x--x--x--x--x--x--x--x-|
-12-12-12-12-12-12-12-12-12-12-12-12-12-12-12-12-|
--x--x--x--x--x--x--x--x--x--x--x--x--x--x--x--x-|

Chorus:
Guitar 1:
-x^--x-----x-x--x--x-x-x-x--x---x-----------------\-- \
-x---x-----x-x--x--x-x-x-x--x---x-------------------- \
-x---x-----x-x--x--x-x-x-x--x---x----------------- -- \
-3~--3-----3-3--3--3-3-3-5--x---x---------------5- -- \X8
-1~--1-----1-1--1--1-1-1-3--0~--0--0-0-0-0--0-0-3---- \ /
-x---x-----x-x--x--x-x-x-x--0~--0--0-0-0-0--0-0------ \
           * *  *  *               * * * *

Guitar 2
-------------------------------------------------\-- \
-5-5-5-5-5-5-2-2-2-2-2-2-0-0-0-0-0-0-2-2-2-2-2-2---- \
-3-3-3-3-3-3-3-3-3-3-3-3-3-3-3-3-3-3-3-3-3-3-3-3- -- \
------------------------------------------------- -- \X8
---------------------------------------------------- \ /
---------------------------------------------------- \

last measure guitar 1 ends like this
----------------------|
----------------------|
----------------------|
----------------5-3~--|
---0-0-0-0--0-0-3-1~--|
---0-0-0-0--0-0-------|
   * * * *

Bridge:
guitar 1
------------------------------------------|
---------8----------8---------8---------8-|
------------------------------------------|
-----8------8---8-----8---8-----8---8-----|
---6---6------6---6-----6---6-----6---6---|
------------------------------------------|

guitar 1 cont
-------------------------------------------\-- \
---------------------------------------------- \
---------7---------7---------7---------7--- -- \
-8---5-----5---5-----5---5-----5---5-----5---- \  /X2 !
---5---5-----5---5-----5---5-----5---5-------- \ /
---------------------------------------------- \
!(let each of these notes ring through)

guitar 2:
-------------------------------\--- \
--------------------------------\-- \
------h10~-----10~---------------\- \
-8~------------8h10~-----7~------/! \
----------------------------------- \
----------------------------------- \
!(i know this probably isnt 100% right or i just might b missing some parts but guitar 2
some crescendo stuff along these lines.)

Breakdown
guitar 1
-------------------------------------------------------------|
-------------------------------------------------------------|
-------------------------------------------------------------|
-------------------------------------------------------------|
-8--------------8--------------8--------------8--------------|
---h12-8-12-8-7---h12-8-12-8-7---h12-8-12-8-7---h12-8-12-8-7-|
       *  * * *       *  * * *       *  * * *       *  * * *

guitar 1 cont
--------------------------------------------------\-- \
----------------------------------------------------- \
-2-----5-----2-----5-----2-----2-----0-----0------ -- \
---3-3---3-3---3-3---3-3---3-0---3-0---3-0---3-0-- -- \X2
---*-*---*-*---*-*---*-*---*-*---*-*---*-*---*-*----- \ /
----------------------------------------------------- \

breakdown cont

guitar 1
-------------------------------------------------|
-------------------------------------------------|
-------------------------------------------------|
-------------------------------------------------|
-1-1-1-1-1-1-1-1-1-1-1-1-1-1-1-1-1-1-1-1-1-1-1-1-|
-1-1-1-1-1-1-1-1-1-1-1-1-1-1-1-1-1-1-1-1-1-1-1-1-|
 * * * * * * * * * * * * * * * * * * * * * * * *

guitar 2
--------------------------------------------------|
--------------------------------------------------|
-3-----------3-----------3-----------3----------3-|
-7-------7---7-------7---7-------7---7-------7--7-|
---6-6-6-6-6-6-6-6-6-6-6-6-6-6-6-6-6-6-6-6-6-6-6--|
---*-*-*---*---*-*-*---*---*-*-*---*---*-*-*-*-*--|


guitar 1 cont
------------------------------------------------|
------------------------------------------------|
------------------------------------------------|
------------------------------------------------|
5-5-5-5-5-5-5-5-5-5-5-5-5-5-5-5-5-5-5-5-5-5-5-5-|
5-5-5-5-5-5-5-5-5-5-5-5-5-5-5-5-5-5-5-5-5-5-5-5-|
* * * * * * * * * * * * * * * * * * * * * * * *

-----------------------------------------------|
-----------------------------------------------|
-----------3-----------3-----------3-----------|
-------7---7-------7---7-------7---7-------7---|
-5-5-5-5-5-5-5-5-5-5-5-5-5-5-5-5-5-5-------5-5-|
-5-5-5-5-5-5-5-5-5-5-5-5-5-5-5-5-5-5-5-5-5-5-5-|

guitar 1 cont
-------------------------------------------------|
-------------------------------------------------|
-------------------------------------------------|
-------------------------------------------------|
-1-1-1-1-1-1-1-1-1-1-1-1-1-1-1-1-1-1-1-1-1-1-1-1-|
-1-1-1-1-1-1-1-1-1-1-1-1-1-1-1-1-1-1-1-1-1-1-1-1-|
 * * * * * * * * * * * * * * * * * * * * * * * *

guitar 2 cont
-------------------------------------------------\-- \
---------------------------------------------------- \
-3-----------3-----------3-----------3----------- -- \
-7-------7---7-------7---7-------7---7-------7--- -- \X2
---6-6-6-6-6-6-6-6-6-6-6-6-6-6-6-6-6-6-6-6-6-6-6---- \ /
---*-*-*---*---*-*-*---*---*-*-*---*---*-*-*-*------ \

guitar 1 cont
-------------------------------------------------\-- \
---------------------------------------------------- \
------------------------------------------------- -- \
------------------------------------------------- -- \X2
-5-5-5-5-5-5-5-5-5-5-5-5-5-5-5-5-5-5-5-5-5-5-5-5---- \ /
-5-5-5-5-5-5-5-5-5-5-5-5-5-5-5-5-5-5-5-5-5-5-5-5---- \
 * * * * * * * * * * * * * * * * * * * * * * * *

guitars 1 and 2

-------------------------\--- \
----------------------------- \
------------------------- --- \
-------------------------  /! \
-5-5-5-5-5-5-3-3-3-3-3-3----- \ /
-5-5-5-5-5-5-3-3-3-3-3-3----- \
play this part after you have played guitars one and twos parts twice.

Chorus
Guitar 1:
-x^--x-----x-x--x--x-x-x-x--x---x-----------------\-- \
-x---x-----x-x--x--x-x-x-x--x---x-------------------- \
-x---x-----x-x--x--x-x-x-x--x---x----------------- -- \
-3~--3-----3-3--3--3-3-3-5--x---x---------------5- -- \X4
-1~--1-----1-1--1--1-1-1-3--0~--0--0-0-0-0--0-0-3---- \ /
-x---x-----x-x--x--x-x-x-x--0~--0--0-0-0-0--0-0------ \
           * *  *  *               * * * *

Guitar 2
-------------------------------------------------\-- \
-5-5-5-5-5-5-2-2-2-2-2-2-0-0-0-0-0-0-2-2-2-2-2-2---- \
-3-3-3-3-3-3-3-3-3-3-3-3-3-3-3-3-3-3-3-3-3-3-3-3- -- \
------------------------------------------------- -- \X4
---------------------------------------------------- \ /
---------------------------------------------------- \

guitar 3
-x--x--x--x--x--x--x--x--x--x--x--x--x--x--x--x--x--x--x--x--x--x--x---- \
-x--x--x--x--x--x--x--x--x--x--x--x--x--x--x--x--x--x--x--x--x--x--x--\- \
-10-10-10-10-10-10-10-10-10-10-10-10-10-10-10-10-10-14-14-14-14-14-14--- \
-x--x--x--x--x--x--x--x--x--x--x--x--x--x--x--x--x--x--x--x--x--x--x---- \ /X2 !
-8--8--8--8--8--8--8--8--8--8--8--8--8--8--8--8--8--12-12-12-12-12-12--- \
-x--x--x--x--x--x--x--x--x--x--x--x--x--x--x--x--x--x--x--x--x--x--x---- \

!(play this after you play guitars 1 and 2s parts twice)

ending

guitar 1
----\
---- \
----  \
----  /X4
-0~- /
-0~-/

guitar 2
----\
---- \
-5~-  \
-3~-  /X4
-1~- /
----/

guitar 3
-1~-\
-1~- \
-3~-  \
-3~-  /X4
-1~- /
-x--/
Tap to rate this tab
 
# A B C D E F G H I J K L M N O P Q R S T U V W X Y Z