Song name
# A B C D E F G H I J K L M N O P Q R S T U V W X Y Z

Killswitch Engage - Starting Over tab

Help us improve GuitareTab! Take a short survey!
~ Vibrato or Strumming (Listen to song for strumming patterns)
/ Slide up
\ Slide down
p Pull Off
h Hammer on

Listen for palm mutes during riffs as I didn't indicate them.

Intro x2:

Guitar 1:

D|--------------------------------------------------------|
A|--------------------------------------------------------|
F|--------------------------------------------------------|
C|3~---------------------------------------------------2~-|
G|3~---------------------------------------------------2~-|
C|3~---------------------------------------------------2~-|

D|--------------------------------------------------------|
A|--------------------------------------------------------|
F|--------------------------------------------------------|
C|3~---------------------------5~-------------------------|
G|3~---------------------------5~-------------------------|
C|3~---------------------------5~-------------------------|

Guitar 1:

D|--------------------------------------------------------|
A|--------------------------------------------------------|
F|----------------/12--9h12p9-----7/9--------/7-----------|
C|/10~---7h10-----------------10-------10~--------9~------|
G|--------------------------------------------------------|
C|--------------------------------------------------------|

D|--------------------------------------------------------|
A|--------------------------------------------------------|
F|------/12--10-9----9--------/12--10-9-----9-------------|
C|7h10------------10---10---------------10----10----------|
G|------------------------10---------------------10-------|
C|--------------------------------------------------------|

Verse 1 x2:

Guitar 1:

(triplet palm muting)

D|------------------------------------------------------------------|
A|--------------------------------------------5--------------5------|
F|----------------------------------------5-----5--------5-----5----|
C|-7----------------10---9----9h-10-----5---5-----5----5---5-----5--|
G|-7----------------7----7----7--7----5--------------0--------------|
C|-7--777-777-777-7----7----7---------5--------------0--------------|


D|------------------------------------------------------------------|
A|-----------------------------------------5--------------5---------|
F|-----------------5----4----4h5-------5-----5--------5-----5-------|
C|-5---------------5----5----5-5-----5---5-----5----5---5-----5-----|
G|-5-------------0----0----0-------3--------------5-----------------|
C|-5-555-555-555-------------------3--------------5-----------------|

Pre-Chorus 1: (Same as intro riff, play once)

Guitar 1:

D|----------------|
A|----------------|
F|----------------|
C|-(Slide down)---|
G|-12\\\\\--------|
C|-12\\\\\--------|

D|--------------------------------------------------------|
A|--------------------------------------------------------|
F|----------------/12--9h12p9-----7/9--------/7-----------|
C|/10~---7h10-----------------10-------10~--------9~------|
G|--------------------------------------------------------|
C|--------------------------------------------------------|

D|---------------------------------------------------------|
A|---------------------------------------------------------|
F|------/12--10-9----9--------/12--10-9-----9--------------|
C|7h10------------10---10---------------10----10-----------|
G|------------------------10---------------------10--------|
C|---------------------------------------------------------|


Chorus 1 x2: 

Guitar 1: (Not positive but sounds okay)

D|---------------------------------------------------------|
A|----5---8-5--------5---8-5---5----3---5-3-----3---5-3---5|
F|--5---5-----5----5---5-----5----5---5-----3-5---5-----5--|
C|5-----------------------------0--------------------------|
G|---------------------------------------------------------|
C|---------------------------------------------------------|

Guitar 2: 

D|---------------------------------------------------------|
A|---------------------------------------------------------|
F|---------------------------------------------------------|
C|3~-------------------------7~----------------------------|
G|3~-------------------------7~----------------------------|
C|3~-------------------------7~----------------------------|

Guitar 1:

D|---------------------------------------------------------|
A|----5---8-5--------5---8-5---5----3---5-3-----5---3-3h5--|
F|--5---5-----5----5---5-----5----5---5-----3-5---5--------|
C|5------------------------------0-------------------------|
G|---------------------------------------------------------|
C|---------------------------------------------------------|

Guitar 2:

D|---------------------------------------------------------|
A|---------------------------------------------------------|
F|---------------------------------------------------------|
C|3~-------------------------7~-------------5~-------------|
G|3~-------------------------7~-------------5~-------------|
C|3~-------------------------7~-------------5~-------------|

Drum and Bass Duet:

Verse 2: 

Guitar 1 x2:

D|------------------------------------------------------------------|
A|--------------------------------------------5--------------5------|
F|----------------------------------------5-----5--------5-----5----|
C|10\---------------10---9----9h-10-----5---5-----5----5---5-----5--|
G|7\----------------7----7----7--7----5--------------0--------------|
C|----777-777-777-7----7----7---------5--------------0--------------|

D|------------------------------------------------------------------|
A|-----------------------------------------5--------------5---------|
F|-----------------5----4----4h5-------5-----5--------5-----5-------|
C|-5---------------5----5----5-5-----5---5-----5----5---5-----5-----|
G|-5-------------0----0----0-------3--------------5-----------------|
C|-5-555-555-555-------------------3--------------5-----------------|

Guitar 2: (Play second time the verse riff is played)

D|------------------------------------------------------------------|
A|------------------------------------------------------------------|
F|-9~------------/12~------------\10~----------/12~-----------------|
C|-X~------------/X~-------------\X~-----------/X~------------------|
G|-7~------------/10~------------\8~-----------/10~-----------------|
C|------------------------------------------------------------------|

D|------------------------------------------------------------------|
A|------------------------------------------------------------------|
F|-7~------------/12~------------\10~----------/12~-----------------|
C|-X~------------/X~-------------\X~-----------/X~------------------|
G|-5~------------/10~------------\8~-----------/10~-----------------|
C|------------------------------------------------------------------|

Fill x2: 


D|------------------------------------------------------------------|
A|------------------------------------------------------------------|
F|------------------------------------------------------------------|
C|------------------8~----------------------------------------------|
G|------------------8~----------------------------------------------|
C|7777777-----------8~----------------------------------------------|

then

D|----------------|
A|----------------|
F|----------------|
C|-(Slide down)---|
G|-12\\\\\--------|
C|-12\\\\\--------|

Chorus 2 x2:

D|---------------------------------------------------------|
A|----5---8-5--------5---8-5---5----3---5-3-----3---5-3---5|
F|--5---5-----5----5---5-----5----5---5-----3-5---5-----5--|
C|5------------------------------0-------------------------|
G|---------------------------------------------------------|
C|---------------------------------------------------------|

Guitar 2: 

D|---------------------------------------------------------|
A|---------------------------------------------------------|
F|---------------------------------------------------------|
C|3~-------------------------7~----------------------------|
G|3~-------------------------7~----------------------------|
C|3~-------------------------7~----------------------------|

Guitar 1:

D|---------------------------------------------------------|
A|----5---8-5--------5---8-5---5----3---5-3-----5---3-3h5--|
F|--5---5-----5----5---5-----5----5---5-----3-5---5--------|
C|5------------------------------0-------------------------|
G|---------------------------------------------------------|
C|---------------------------------------------------------|

Guitar 2:

D|---------------------------------------------------------|
A|---------------------------------------------------------|
F|---------------------------------------------------------|
C|3~-------------------------7~-------------5~-------------|
G|3~-------------------------7~-------------5~-------------|
C|3~-------------------------7~-------------5~-------------|

Break:

D|---------------------------------------------------------|
A|---------------------------------------------------------|
F|-------------------------------------9~-------10~--------|
C|-----9---9h10-----------9----9h10----7~-------7~---------|
G|7------------------------------------7~-------7~---------|
C|7-7----7-------7777--7----7------------------------------|

D|---------------------------------------------------------|
A|---------------------------------------------------------|
F|-------------------------------------10~------12~--------|
C|-----9---9h10-----------9----9h10----7~-------10~--------|
G|7------------------------------------7~-------10~--------|
C|7-7----7-------7777--7----7------------------------------|

D|---------------------------------------------------------|
A|---------------------------------------------------------|
F|-----7---7h9------------7h9--7h9-----9~-------10~--------|
C|-------------------------------------7~-------7~---------|
G|7------------------------------------7~-------7~---------|
C|7-7----7-------7777--7----7------------------------------|

D|---------------------------------------------------------|
A|---------------------------------------------------------|
F|-----7---7h9------------7----7h9-----10~------12~--------|
C|-------------------------------------7~-------10~--------|
G|7------------------------------------7~-------10~--------|
C|7-7----7-------7777--7----7------------------------------|

Clean Interlude:

Guitar 1:

D|---------------------------------------------------------|
A|----5---8-5--------5---8-5---5----3---5-3-----5---8-5----|
F|--5---5-----5----5---5-----5----5---5-----3-5---5-----5--|
C|5------------------------------0-------------------------|
G|---------------------------------------------------------|
C|---------------------------------------------------------|

Fill:

D|---------------------------------------|
A|---------------------------------------|
F|---------------------------------------|
C|-12\\\\\----/7~-------/5~--------------|
G|-12\\\\\-------------------12\\\\\\\\\-|
C|---------------------------12\\\\\\\\\-|

Chorus 3 x4:

D|---------------------------------------------------------|
A|----5---8-5--------5---8-5---5----3---5-3-----3---5-3---5|
F|--5---5-----5----5---5-----5----5---5-----3-5---5-----5--|
C|5------------------------------0-------------------------|
G|---------------------------------------------------------|
C|---------------------------------------------------------|
Guitar 2: 

D|---------------------------------------------------------|
A|---------------------------------------------------------|
F|---------------------------------------------------------|
C|3~-------------------------7~----------------------------|
G|3~-------------------------7~----------------------------|
C|3~-------------------------7~----------------------------|

Guitar 1:
D|---------------------------------------------------------|
A|----5---8-5--------5---8-5---5----3---5-3-----5---3-3h5--|
F|--5---5-----5----5---5-----5----5---5-----3-5---5--------|
C|5------------------------------0-------------------------|
G|---------------------------------------------------------|
C|---------------------------------------------------------|

Guitar 2:

D|---------------------------------------------------------|
A|---------------------------------------------------------|
F|---------------------------------------------------------|
C|3~-------------------------7~-------------5~-------------|
G|3~-------------------------7~-------------5~-------------|
C|3~-------------------------7~-------------5~-------------|

Outro x2:



D|---------------------------------------------------------|
A|---------------------------------------------------------|
F|-10~---------------------------------/12~----------------|
C|-X~----------------------------------/X~-----------------|
G|-8~----------------------------------/10~----------------|
C|---------------------------------------------------------|

Guitar 2: 

D|---------------------------------------------------------|
A|---------------------------------------------------------|
F|---------------------------------------------------------|
C|3~-------------------------7~----------------------------|
G|3~-------------------------7~----------------------------|
C|3~-------------------------7~----------------------------|

Guitar 1:


D|------------------------------------------------------------------|
A|------------------------------------------------------------------|
F|-10~-----------/12~------------\14~----------/12~-----------------|
C|-X~------------/X~-------------\X~-----------/X~------------------|
G|-8~------------/10~------------\12~----------/10~-----------------|
C|------------------------------------------------------------------|

Guitar 2:

D|---------------------------------------------------------|
A|---------------------------------------------------------|
F|---------------------------------------------------------|
C|3~-------------------------7~-------------5~-------------|
G|3~-------------------------7~-------------5~-------------|
C|3~-------------------------7~-------------5~-------------|

Guitar 1 (Last note, Let Ring):

D|------------|
A|------------|
F|-10~--------|
C|-X~---------|
G|-8~---------|
C|------------|


Guitar 2 (Last note, Let Ring):

D|------------|
A|------------|
F|------------|
C|-3~---------|
G|-3~---------|
C|-3~---------|
Related for Starting Over tab