Song name
# A B C D E F G H I J K L M N O P Q R S T U V W X Y Z

Killswitch Engage - A Bid Farewell tab

Moderatly=120
CGCFAD
Recording sounds one whole step lower than written.

(w/light distortion)
|-----------5-|-----------5-|-----------8-|
|-------------|-------------|-------------|
|--7--8--7----|--7--8--7----|--7--8--7----|
|-------------|-------------|-------------|    4x
|-------------|-------------|-------------|
|-------------|-------------|-------------|

(w/heavy distortion)
|----------------|----------------|---------------------|-----------------|
|----------------|----------------|---------------------|-----------------|
|----------------|----------------|---------------------|-----------------|
|----------------|----------------|---------------------|-----------------|
|-0-0-0-0---0--0-|-0-0-0-0---0--0-|-0-0-0-0---0-0-0-0-3-|--0-0-0-0---0--0-|
|-0-0-0-0---0--0-|-0-0-0-0---0--0-|-0-0-0-0---0-0-0-0-3-|--0-0-0-0---0--0-|

|----------------|---------------------|----------------|----------------|
|----------------|---------------------|----------------|----------------|
|----------------|---------------------|----------------|----------------|
|----------------|---------------------|----------------|----------------|
|-0-0-0-0---0--0-|-0-0-0-0---0-0-0-0-3-|-0-0-0-0---0--0-|-0-0-0-0---0--0-|
|-0-0-0-0---0--0-|-0-0-0-0---0-0-0-0-3-|-0-0-0-0---0--0-|-0-0-0-0---0--0-|

|--------------------|---------------|---------------|---------------------|
|--------------------|---------------|---------------|---------------------|
|--------------------|---------------|---------------|---------------------|
|--------------------|---------------|---------------|---------------------|
|-0-0-0-0--0-0-0-0-3-|-0-0-0-0--0--0-|-0-0-0-0--0--0-|-0-0-0-0---0-0-0-0-3-|
|-0-0-0-0--0-0-0-0-3-|-0-0-0-0--0--0-|-0-0-0-0--0--0-|-0-0-0-0---0-0-0-0-3-|

|------------------|------------------|--------------------------|
|------------------|------------------|--------------------------|
|------------------|------------------|--------------------------|
|------------------|------------------|--------------------------|  x2
|------------------|------------------|--------------------------|
|-0-0-0--1h2--0--0-|-0-0-0--1h2--0--0-|-0-0-0--1h2--0-0-0-0-2h3--|
  * * *       *  *   * * *       *  *   * * *       * * * *
|------------------|----------------|----------------|
|------------------|----------------|----------------|
|------------------|----------------|----------------|
|------------------|----------------|----------------|
|------------------|-0-0-0-0---0--0-|-0-0-0-0---0--0-|
|-0-0-0--1h2--0--0-|-0-0-0-0---0--0-|-0-0-0-0---0--0-|
  * * *       *  *
|--------------------|---------------|---------------|---------------------|
|--------------------|---------------|---------------|---------------------|
|--------------------|---------------|---------------|---------------------|
|--------------------|---------------|---------------|---------------------|
|-0-0-0-0--0-0-0-0-3-|-0-0-0-0--0--0-|-0-0-0-0--0--0-|-0-0-0-0---0-0-0-0-3-|
|-0-0-0-0--0-0-0-0-3-|-0-0-0-0--0--0-|-0-0-0-0--0--0-|-0-0-0-0---0-0-0-0-3-|

|-----------------|-----------------|------------------------|
|-----------------|-----------------|------------------------|
|-------3/4---3/4-|-------3/4---3/4-|-------3/4---------4/5--|
|-------1/2---1/2-|-------1/2---1/2-|-------1/2---------2/3--|
|-------1/2---1/2-|-------1/2---1/2-|-------1/2---------2/3--|
|-0-0-0-----0-----|-0-0-0-----0-----|-0-0-0-----0-0-0-0------|

|-----------------|-----------------|-----------------------|
|-----------------|-----------------|-----------------------|
|-------3/4---3/4-|-------3/4---3/4-|-------3/4---------4/5-|
|-------1/2---1/2-|-------1/2---1/2-|-------1/2---------2/3-|
|-------1/2---1/2-|-------1/2---1/2-|-------1/2---------2/3-|
|-0-0-0-----0-----|-0-0-0-----0-----|-0-0-0-----0-0-0-0-----|

(w/distortion)
|-------------------------|------------|--------------------------|
|-------------------------|------------|--------------------------|
|-------------------------|------------|-------------5-----5------|
|-7-5-3-7-5-3-5-3-2-5-3-2-|-2---3--5-3-|-7-5-3-7-5-3---7-5---7-5--|
|-------------------------|------------|--------------------------|
|-------------------------|------------|--------------------------|
------------------------------------------------------------------|
------------------------------------------------------------------|
------------------------------------------------------------------|
-2---3--5-3-------------------------------------------------------|
------------------------------------------------------------------|
------------------------------------------------------------------|

|-------------------------|------------|--------------------------|
|-------------------------|------------|--------------------------|
|-------------------------|------------|--------------------------|
|-3-2---3-2---2-----2-----|-------2----|-3-2---3-2---5-3-2-5-3-2--|
|-----5-----5---5-3---5-3-|-3---5----5-|-----5-----5--------------|
|-------------------------|------------|--------------------------|
------------------------------------------------------------------|
------------------------------------------------------------------|
------------------------------------------------------------------|
-------2----------------------------------------------------------|
-3---5---5--------------------------------------------------------|
------------------------------------------------------------------|
Tap to rate this tab
 
# A B C D E F G H I J K L M N O P Q R S T U V W X Y Z