Song name
# A B C D E F G H I J K L M N O P Q R S T U V W X Y Z

Killswitch Engage - Lost tab

Intro: 

Guitar 1: Repeat until Verse

D|--------------------------------------------------------|
A|--10-------10-------10-------10-------10----------------|
F|-----10-------10-------10-------10-------10----10-------|
C|--------12-------12-------12-------12-------12----------|
G|--------------------------------------------------------|
C|--------------------------------------------------------|

Guitar 2: Repeat X2

D|--------------------------------------------------------|
A|--------------------------------------------------------|
F|--------------------------------------------------------|
C|-0~------------------------------------3~---------------|
G|-0~------------------------------------3~---------------|
C|-0~------------------------------------3~---------------|


D|--------------------------------------------------------|
A|--------------------------------------------------------|
F|--------------------------------------------------------|
C|-0~------------------------------------5~---------------|
G|-0~------------------------------------5~---------------|
C|-0~------------------------------------5~---------------|


D|--------------------------------------------------------|
A|--------------------------------------------------------|
F|--------------------------------------------------------|
C|-0~--------------3~---------------------8~------------5~|
G|-0~--------------3~---------------------8~------------5~|
C|-0~--------------3~---------------------8~------------5~|

Second time before Verse:

D|--------------------------------------------------------|
A|--------------------------------------------------------|
F|----------------------------------(Palm Mute repeatedly)|
C|-0~-----3~--------8-------------------------------------|
G|-0~-----3~--------8-88888888888888----------------------|
C|-0~-----3~--------8-88888888888888----------------------|

Verse 2X:

Guitar 1 and 2:

D|--------------------------------------------------------|
A|--------------------------------------------------------|
F|--------------------------------------------------------|
C|-0------------------------1-----------------------------|
G|-0-000-00--5555--1111111--1-111-11--5555--1111111-------|
C|-0-000-00--5555--1111111--1-111-11--5555--1111111-------|

Pre-Chorus

Guitar 1 and 2:

D|---------------------------------------------------------|
A|---------------------------------------------------------|
F|---------------------------------------------------------|
C|0--------------5--7---1-1------1--------------5---7---1-0|
G|0-000-00---5---3--5---1-1-1111-1-111-11---5---3---5---1-0|
C|0-000-00-0-5-0--0---0-1-1-1111-1-111-11-0-5-0---0---0-1-0|

Chorus:


D|--------------------------------------------------------|
A|--------------------------------------------------------|
F|-----------------------7----/8--\7----/10~--------------|
C|-5---55---1-----1------X----/X--\X----/X~---------------|
G|-5---55---1-----1------5----/6--\5----/8~---------------|
C|-5---55---1-----1---------------------------------------|


D|--------------------------------------------------------|
A|--------------------------------------------------------|
F|-----------------------7----/8--\7----\5~---------------|
C|-5----5---1-----1------X----/X--\X----\X~---------------|
G|-5----5---1-----1------5----/6--\5----\3~---------------|
C|-5--5-5---1-----1---------------------------------------|

Verse 2:

Guitar 1 and 2:

Play 2X:

D|---------------------------------------------------------|
A|---------------------------------------------------------|
F|---------------------------------------------------------|
C|0--------------5--7---1-1------1--------------5---7---1-0|
G|0-000-00---5---3--5---1-1-1111-1-111-11---5---3---5---1-0|
C|0-000-00-0-5-0--0---0-1-1-1111-1-111-11-0-5-0---0---0-1-0|

D|--------------------------------------------------------|
A|--------------------------------------------------------|
F|--------------------------------------------------------|
C|-Slide Down---------------------------------------------|
G|-12\\\\\\\\\\\\-----------------------------------------|
C|-12\\\\\\\\\\\\-----------------------------------------|

Guitar 1 and 2:

Play 2X

D|--------------------------------------------------------|
A|--------------------------------------------------------|
F|--------------------------------------------------------|
C|-0------------------------1-----------------------------|
G|-0-000-00--5555--1111111--1-111-11--5555--1111111-------|
C|-0-000-00--5555--1111111--1-111-11--5555--1111111-------|

Chorus 2:

D|--------------------------------------------------------|
A|--------------------------------------------------------|
F|-----------------------7----/8--\7----/5~---------------|
C|-5---55---1-----1------X----/X--\X----/X~---------------|
G|-5---55---1-----1------5----/6--\5----/3~---------------|
C|-5---55---1-----1---------------------------------------|


D|--------------------------------------------------------|
A|--------------------------------------------------------|
F|-----------------------7----/8--\7----\10~--------------|
C|-5----5---1-----1------X----/X--\X----\X~---------------|
G|-5----5---1-----1------5----/6--\5----\8~---------------|
C|-5--5-5---1-----1---------------------------------------|


D|--------------------------------------------------------|
A|--------------------------------------------------------|
F|--------------------------------------------------------|
C|-Pick Slide---------------------------------------------|
G|-\\\\\\\\\\\\\\-----------------------------------------|
C|-\\\\\\\\\\\\\\-----------------------------------------|



D|--------------------------------------------------------|
A|--------------------------------------------------------|
F|------7-----10-----3~------7----/8--\7-----5~-----------|
C|------X-----X------X~------X----/X--\X-----X~-----------|
G|------5-----8------1~------5----/6--\5-----3~-----------|
C|--------------------------------------------------------|

D|--------------------------------------------------------|
A|--------------------------------------------------------|
F|------7-----10-----3~------7----/8--\7-----5~-----------|
C|------X-----X------X~------X----/X--\X-----X~-----------|
G|------5-----8------1~------5----/6--\5-----3~-----------|
C|--------------------------------------------------------|

Interlude:

Guitar 1:

Play X4

D|--------------------------------------------------------|
A|--------------------------------------------------------|
F|--------------------------------------------------------|
C|--------8---------8---------8---------8---------8-------|
G|--0--5------0--5------0--5------0--5------0--5----------|
C|--------------------------------------------------------|

D|--------------------------------------------------------|
A|--------------------------------------------------------|
F|--------------------------------------------------------|
C|--------------------------------------------------------|
G|--------3---------3-----5--------5--------5-----7-------|
C|--0--1------0--1----1------0--3-----0--3-----3----------|
C|--------------------------------------------------------|

Guitar 2:

After guitar 1 has played above riff twice...

Play X2

D|--------------------------------------------------------|
A|--------------------------------------------------------|
F|--------10--------10--------10--------10--------10------|
C|--0--8------0--8------0--8------0--8------0--8----------|
G|--------------------------------------------------------|
C|--------------------------------------------------------|


D|--------------------------------------------------------|
A|--------------------------------------------------------|
F|--------10--------10-----10--------10--------10---10----|
C|--0--7------0--7------7------0--8------0--8-----8-------|
G|--------------------------------------------------------|
C|--------------------------------------------------------|

Last time:

D|--------------------------------------------------------|
A|--------------------------------------------------------|
F|--------------------------------------------------------|
C|-Pick Slide---------------------------------------------|
G|-\\\\\\\\\\\\\\-----------------------------------------|
C|-\\\\\\\\\\\\\\-----------------------------------------|

Chorus 3:

D|--------------------------------------------------------|
A|--------------------------------------------------------|
F|------7-----10-----3~------7----/8--\7-----5~-----------|
C|------X-----X------X~------X----/X--\X-----X~-----------|
G|------5-----8------1~------5----/6--\5-----3~-----------|
C|--------------------------------------------------------|

D|--------------------------------------------------------|
A|--------------------------------------------------------|
F|------7-----10-----3~------7----/8--\7-----5~-----------|
C|------X-----X------X~------X----/X--\X-----X~-----------|
G|------5-----8------1~------5----/6--\5-----3~-----------|
C|--------------------------------------------------------|


D|--------------------------------------------------------|
A|--------------------------------------------------------|
F|---8-8---10-10--12-12---15-15-15-15-15-15-14-10~--------|
C|---X-X---X--X---X--X----X--X--X--X--X--X--X--X~---------|
G|---6-6---8--8---10-10---13-13-13-13-13-13-12-8~---------|
C|--------------------------------------------------------|

D|--------------------------------------------------------|
A|--------------------------------------------------------|
F|---------------------------7----/8--\7-----10~----------|
C|---------------------------X----/X--\X-----X~-----------|
G|---------------------------5----/6--\5-----8~-----------|
C|--------------------------------------------------------|

D|--------------------------------------------------------|
A|--------------------------------------------------------|
F|---8-8---10-10--12-12---15-15-15-15-15-15-14-15~--------|
C|---X-X---X--X---X--X----X--X--X--X--X--X--X--X~---------|
G|---6-6---8--8---10-10---13-13-13-13-13-13-12-13~--------|
C|--------------------------------------------------------|


D|--------------------------------------------------------|
A|--------------------------------------------------------|
F|---------------------------7----/8--\7-----10~----------|
C|---------------------------X----/X--\X-----X~-----------|
G|---------------------------5----/6--\5-----8~-----------|
C|--------------------------------------------------------|

Outro:

Guitar 1:


D|10-----10-----14-----14----14---10----10-----8----8-----8---|
A|--11-----11-----11-----11----11---11----11----10---10-----10|
F|----12-----12-----12-----12---------12----12----10---10-----|
C|------------------------------------------------------------|
G|------------------------------------------------------------|
C|------------------------------------------------------------|


D|10-----10-----14-----14----14---10----10-----8~-----10~-----|
A|--11-----11-----11-----11----11---11----11---10~----11~-----|
F|----12-----12-----12-----12---------12----12-10~----12~-----|
C|------------------------------------------------------------|
G|------------------------------------------------------------|
C|------------------------------------------------------------|
Tap to rate this tab
# A B C D E F G H I J K L M N O P Q R S T U V W X Y Z