Song name
# A B C D E F G H I J K L M N O P Q R S T U V W X Y Z

Killswitch Engage - Holy Diver tab

i've been playing for about a year now so i thought i'd give try at this 
it's 99.9% done but please don't rip on me if it's not perfect





legend:

| b     bend
| r     return
| /     slide up
| \     slide down
| h     hammer on
| p     pull off
| *     pinch harmonic
| ~     tremolo
| ...   palm muted
| x     muted note
| (n)   optional note









SOLO
|------|-----------------------------|-------|----10-13-12h13p12-10----10-|
|------|-12b13-r12--10--12-----------|-------|-13-------------------13----|
|------|-12b13-r12--10--12p10----10~-|-------|----------------------------|
|------|----------------------12-----|-------|----------------------------| 1
|------|-----------------------------|-------|----------------------------|
|------|-----------------------------|-------|----------------------------|
|
|------|-----------------------------|-------|----------------------------|
|------|-----------------------------|-------|----------------------------|
|------|-----------------------------|-------|----------------------------|
|-5-7--|-----------------------------|-10-7--|----------------------------| 2
|-3-5--|-----------------------------|--8-5--|----------------------------|
|------|-----------------------------|-------|----------------------------|


|-------------------------15----15-17-15-17-18-18b20-r18--17p13h17--|
|----15-17-15-17-18-17-18----18-------------------------------------|
|-17----------------------------------------------------------------|
|-------------------------------------------------------------------|
|-------------------------------------------------------------------|
|-------------------------------------------------------------------|
|
|---------|----------------------------------------|----------------|
|---------|----------------------------------------|----------------|
|---------|----------------------------------------|----------------|
|--7--7---|----------------------------------------|--10--7---------| 2
|--5--5---|----------------------------------------|---8--5---------|
|---------|----------------------------------------|----------------|

       **sweep picked**
|--------13h17p13-----------------------|
|-----15----------15--------------------|
|--------------------14-12h14p12--------|
|--------------------------------15p12--|
|-15\-----------------------------------|
|-15\-----------------------------------|
|
|---------------------------------------|
|---------------------------------------|
|---------------------------------------|
|---10--7-------------------------------| 2
|----8--5-------------------------------|
|---------------------------------------|


|-----|----------------------------------------|
|-----|----------------------------------------|
|-----|----------------------------------------|
|-7-7-|----------------------------------------| 1
|-5-5-|----------------------------------------|
|-----|----------------------------------------|
|
|-----------------------------------------------|
|-8b10-8b10-8p6-----8b10*-8b10*-8p6-----13b15---|
|---------------7-------------------7-----------|
|-----------------------------------------------| 2
|-----------------------------------------------|
|-----------------------------------------------|


|-------|--------------------------------------------------------|
|-------|--------------------------------------------------------|
|-------|--------------------------------------------------------|
|-10-7--|--------------------------------------------------------| 1
|--8-5--|--------------------------------------------------------|
|-------|--------------------------------------------------------|
|
|                                  *speed up playing here
|-----------------------------------------------------------------------|
|----13-15----13--------------------------------------------------------|
|-14-------14----14-12-14-12-10----10-12-10-13-10-12-10h12h13p12p10-----|
|-------------------------------12----------------------------------12--| 2
|-----------------------------------------------------------------------|
|-----------------------------------------------------------------------|


|------|-----------------------------------------------|
|------|-----------------------------------------------|
|------|-----------------------------------------------|
|-7-7--|-----------------------------------7-9---------| 1
|-5-5--|-----------------------------------5-7---------|
|------|-----------------------------------------------|
|
|-10------10------10------10------10----10-10b12-r10p8-|
|----10-9----10-9----10-9----10-9----10----------------|
|------------------------------------------------------|
|------------------------------------------------------| 
|------------------------------------------------------|
|------------------------------------------------------|

                                    *this part is played in the background
|-10-10------8-8----------------------------------------|
|-------10-10-----6-6--5-6-6b8-r6p5--(b6r5b6r5b6r5...)--|
|-------------------------------------------------------|
|-------------------------------------------------------|
|-------------------------------------------------------|
|-------------------------------------------------------|
Tap to rate this tab
# A B C D E F G H I J K L M N O P Q R S T U V W X Y Z