Guitaretab - guitar tabs
Song name
# A B C D E F G H I J K L M N O P Q R S T U V W X Y Z

Killswitch Engage - The Forgotten tab

Heres the intro and i geuss the main riff but anyways here you go.  Not sure if it is 
correct so please leave your corrections and comments.  I will try to tab the rest.

Tabbed By: Eric kisch
Email: kisch.eric@gmail.com

 .=palm mute \=slide away /=slide to  ^=bend

D|--------------------------------------------------------------|
A|--------------------------------------------------------------|
F|--------------------------------------------------------------|
C|------------------------------------------------2-2-2/4 ------|
G|-2-2-2--2-2--22--0-0-0--2-2-22--2-5-5--5-5--55--0-0-0/2-------|
C|-2-2-2--2-2--22--0-0-0--4-4-44--4-5-5--5-5--55-----------/12\-|
   . . .  . .  ..  . . .  . . ..  . . .  . .  ..
D|--------------------------------------------------------------|
A|--------------------------------------------------------------|
F|--12-11-9---------9----12-11-9-----------------11-12-11-9-----|
C|----------9-11-12---12---------12----9-11-12-9----------------|
G|----------------------------------12--------------------------|
C|--------------------------------------------------------------|
[ Tab from: http://www.guitaretab.com/k/killswitch-engage/191412.html ]

D|------------------------------|
A|------------------------------|
F|---------9----12-11-9---------|
C|--9-11-12--12---------12\9----|
G|------------------------------|
C|------------------------------|


D|------------------------|----------------------------|
A|------------------------|----------------------------|
F|------------------------|----------------------------|
C|------------------------|----------------------------|
G|------------------7-----|-----------------7----------|
C|--0-000-0000-0000---8-9-|-0-000-0000-0000--8-5-5-8-5-|
    . ... .... ...          . ... .... ....

D|------------------------|-------------------------------------------------|
A|------------------------|-------------------------------------------------|
F|------------------------|-------------------------------------------------|
C|------------------------|-------------------------------------------------|
G|------------------7-----|-----------------12^(bend down then return)-10\7-|
C|--0-000-0000-0000---8-9-|-0-000-0000-0000---------------------------------|
    . ... .... ....         . ... .... ....
Related for The Forgotten tab
×
The Forgotten