Song name
# A B C D E F G H I J K L M N O P Q R S T U V W X Y Z

Killswitch Engage - I Would Do Anything tab

So this is what i think it sounds to me :) let me know what you think.

INTRO: 2x
|-----------------------------------------------|
|-----------------------------------------------|
|-----------------------------------------------|
|-----------------------------------------------|
|00-0~-001--00-0~-001-1-00-0~-00-5-6-3-3-3-\7-7-|
|00-0~-001--00-0~-001-1-00-0~-00-5-6-3-1-3-\5-5-|
 ..    ...  ..    ... . ..    .. . . .

|------------------------------------------------------------|
|------------------------------------------------------------|
|------------------------------------------------------------|
|------------------------------------------------------------|
|00-0~-001-1-1-1-1-00-0~-001-1-1-1-1-00-0~-00-5-6-3-3-3-\8-8-|
|00-0~-001-1-1-1-1-00-0~-001-1-1-1-1-00-0~-00-5-6-3-1-3------|
 ..    ... . . . . ..    ... . . . . ..    .. . . .

VERSE:
|--------------------------------------------|
|--------------------------------------------|
|--2-------------------------------2---------|
|--2---3-3-------------------------2---3-----|
|0-0-0-1-1-0-000-000-000-000-000-0-0-0-1-0---|
|0---0-----0-000-000-000-000-000-0---0---0---|
 .   .     . ... ... ... ... ... .   .   .

---------------------------------------------|
---------------------------------------------|
--------------------5---7\-------------------|
-000-000-000-000-00-3-0-5\-------------------|
-000-000-000-000-00---0----------------------|
 ... ... ... ... ..

The chorus i still haven't found out :(

THE THING BEFORE THE CHORUS:
tremolo pick these notes
|---------------|
|---------------|
|-10-9-7-5-3----|
|-x--x-x-x-x----|
|-8--7-5-3-1----|
|---------------|

Then the same thing through out.

BRIDGE THINGY:6x
(i think there is a harmonic pinch in there somewhere
but you can figure it out:))
|-----------------------------------------------|
|----------------------------2------------------|
|------------------------3---2------------------|
|0---0----0----0-----0-0-1-0-0-0----------------|
|0-3-0-/5-0-\6-0-\5~-0-0---0---0-3\5p0----------|
 .   .    .    .     . .   .   .
-----------------|
-----------------|
-----------------|
-----------------|
00000000000000---|
00000000000000---|
..............

Other guitar comes in the 5x
|-----------------------------------------------|
|-----------------------------------------------|
|-----------------------------------------------|
|-------------------------3--1------------------|
|-0-3-0-\5-0-\6-0-\5~-0-0--0---0-3\5p0----------|
|-0---0----0----0-----0-0--0---0----------------|
  .   .    .    .     . .  .   .

Thats all know no so far :)

let me know if there's any corrections.
Tap to rate this tab
 
# A B C D E F G H I J K L M N O P Q R S T U V W X Y Z