Song name
# A B C D E F G H I J K L M N O P Q R S T U V W X Y Z

Killswitch Engage - Never Again tab

The tabs that I saw were up here (Both guitar pro, and standard tab format) looked like
were VERY wrong with the solo, atleast by my ear.  So I slowed the song down myself, and
up with this by ear.  I'm not sure if it's 100% accurate, but it's much better than the 
tabs. For instance, none of the other tabs show that the tapping at the end is
a double tap, it shows 2 different ones.  Well when you slow the song down enough, you 
hear it much more clearly.  Let me know if you have any tips on how to make it even 
I'm open to any tips you may have.  Enjoy~

D[-------------------------------------------17---------]
A[---------8--6---5-------------------/18-17-----15-----]
F[-7~-7----------------7---/5-2-0-2-----------------14--]
C[-----------0---0---0---0------------------------------]
G[------------------------------------------------------]
C[------------------------------------------------------]

D[-15*-17p12h13p12-----12-17p12h13p12-------12----17p12h13p12-----12-]
A[-----------------13--------------------13--------------------15----]
F[-------------------------------------------------------------------]
C[-------------------------------------------------------------------]
G[-------------------------------------------------------------------]
C[-------------------------------------------------------------------]

D[-15-17p12h13p12----12-17p12h15p12h15p12-17p12h15p12h15-17/20B^(22)(22)-]
A[----------------15-----------------------------------------------------]
F[-----------------------------------------------------------------------]
C[-----------------------------------------------------------------------]
G[-----------------------------------------------------------------------]
C[-----------------------------------------------------------------------]

D[-13h15h-T18p17T18-p17p15p13--------------------------------------------|
A[---------------------------T18p17T18-p17p15p13-------------------------|
F[----------------------------------------------T17p15T17-p15p14p12h-----|
C[-----------------------------------------------------------------------|
G[-----------------------------------------------------------------------|
C[-----------------------------------------------------------------------|

D[------------------------------------------------------]
A[------------------------------------------------------]
F[--T15p13T15-p13p12p10---------------------------------]
C[----------------------T14p12T14-p12p10p8--7~----------]
G[------------------------------------------------------]
C[------------------------------------------------------]
Tap to rate this tab
 
# A B C D E F G H I J K L M N O P Q R S T U V W X Y Z