Song name
# A B C D E F G H I J K L M N O P Q R S T U V W X Y Z

Killswitch Engage - Inhale tab

"Inhale" by Killswitch Engage

p = pull-off
~ = let ring

Guitar 1: Clean Electric
Guitar 2: Acoustic Rhythm
Guitar 3: Acoustic Lead

Guitar 1 (0:01 - 0:12)
d|---3--333--333--33--3--333--333--33--3--333--333--33--2--222--222--22---|
A|---3--333--333--33--3--333--333--33--3--333--333--33--3--333--333--33---|
F|---0--000--000--00--0--000--000--00--2--222--222--22--2--222--222--22---|
C|---0--000--000--00--2--222--222--22--0--000--000--00--0--000--000--00---|
G|---2--222--222--22--3--333--333--33-------------------------------------|
D|---3--333--333--33------------------------------------------------------|



Guitar 2&3 (0:13 - 0:24)
d|---3--333--333--33--3--333--333--33--3--333--333--33--2--222--222--22---|
A|---3--333--333--33--3--333--333--33--3--333--333--33--3--333--333--33---|
F|---0--000--000--00--0--000--000--00--2--222--222--22--2--222--222--22---| 
C|---0--000--000--00--2--222--222--22--0--000--000--00--0--000--000--00---|
G|---2--222--222--22--3--333--333--33-------------------------------------|
D|---3--333--333--33------------------------------------------------------|



Guitar 2 (0:25 - 0:36)
d|---3--333--333--33--3--333--333--33--3--333--333--33--2--222--222--22---|
A|---3--333--333--33--3--333--333--33--3--333--333--33--3--333--333--33---|
F|---0--000--000--00--0--000--000--00--2--222--222--22--2--222--222--22---| 
C|---0--000--000--00--2--222--222--22--0--000--000--00--0--000--000--00---|
G|---2--222--222--22--3--333--333--33-------------------------------------|
D|---3--333--333--33------------------------------------------------------|

Guitar 3 (0:25 - 0:36)                                
d|---3--3--5--3--3----3--3--7--5--3--3--3--5--3--7-5-3-2-3p2-0--000--00---|
A|----3--3--3--3--3----3--3--5--3--3--3--3-------------------3--333--33---|
F|-----0--0--0--0--0----0--0--0--0--0--0--0------------------2--222--22---|
C|-----------------------------------------------------------0--000--00---|
G|------------------------------------------------------------------------|
D|------------------------------------------------------------------------|

*play the last part again (0:37 - 0:48)*




Guitar 2 (0:49 - 1:00) 
d|---3--333--333--33--3--333--333--33--3--333--333--33--2--222--222--22---|
A|---3--333--333--33--3--333--333--33--3--333--333--33--3--333--333--33---|
F|---0--000--000--00--0--000--000--00--2--222--222--22--2--222--222--22---| 
C|---0--000--000--00--2--222--222--22--0--000--000--00--0--000--000--00---|
G|---2--222--222--22--3--333--333--33-------------------------------------|
D|---3--333--333--33------------------------------------------------------|

Guitar 3 (0:49 - 1:00)
d|---3~~~~~----------------------------3~~~~~-----------------------------|
A|---3~~~~~----------------------------3~~~~~-----------------------------|
F|---0~~~~~----------------------------0~~~~~-----------------------------|
C|---0~~~~~----------------------------0~~~~~-----------------------------|
G|---2~~~~~----------------------------2~~~~~-----------------------------|
D|---3~~~~~----------------------------3~~~~~-----------------------------|

Guitar 1 (0:49 - 1:00)
d|----------8-7~~~~~--------------------------8-7~~~~~--------------------|
A|--------------7~~~------------------------------7~~~--------------------|
F|------------------------------------------------------------------------|
C|------------------------------------------------------------------------|
G|------------------------------------------------------------------------|
D|------------------------------------------------------------------------|



Guitar 2 (1:01 - 1:07)
d|---3--333--333--33--3--333--333--33--3~~~---|
A|---3--333--333--33--3--333--333--33--3~~~---|
F|---0--000--000--00--0--000--000--00--2~~~---|
C|---0--000--000--00--2--222--222--22--0~~~---|
G|---2--222--222--22--3--333--333--33---------|
D|---3--333--333--33--------------------------|

Guitar 3 (1:01 - 1:07)
d|---3~~~~~----------------------------3~~~---|
A|---3~~~~~----------------------------3~~~---|
F|---0~~~~~----------------------------0~~~---|
C|---0~~~~~----------------------------0~~~---|
G|---2~~~~~----------------------------2~~~---|
D|---3~~~~~----------------------------3~~~---|

Guitar 1 (1:01 - 1:07)
d|----------8-7~~~~~---------------8-7~~~~~---|
A|--------------7~~~-------------------7~~~---|
F|--------------------------------------------|
C|--------------------------------------------|
G|--------------------------------------------|
D|--------------------------------------------|



Guitar 2&3 (1:10)
d|---3~~~~~---|
A|---3~~~~~---|
F|---0~~~~~---|
C|---0~~~~~---|
G|---2~~~~~---|
D|---3~~~~~---|







Tap to rate this tab
# A B C D E F G H I J K L M N O P Q R S T U V W X Y Z