Song name
# A B C D E F G H I J K L M N O P Q R S T U V W X Y Z

Killswitch Engage - Let The Bridges Burn tab

*****************************************************************************
          KILLSWITCH ENGAGE  As Daylight Dies (Special Edition) 
*****************************************************************************

\note/ I know this isn't perfect but I think it's better then the other tabs on this site.

tuning: drop C (C G C F A D)

start the song off by having one guitar get feed back from an amp until 0:13


pick slide while sliding the power chord at 0:14
D-----------------------------------|-----------------------------------|
A-----------------------------------|-----------------------------------|
F-----------------------------------|-----------------------------------|
G-----------------------------------|-----------------------------------|
G-------2/--------------------------|-----------------------------------|
C-------4/--------------------------|-----------------------------------|
 
 
use lots of reverb and don't play the last 8, 4s the second time through
bend the final 8 4s up a quarter step, the final note is followed by a quick slide              x2
D-----------------------------------|-----------------------------------|
A-----------------------------------|-----------------------------------|
F-----------------------------------|-----------------------------------|
G-----------------------------------|-----------------------------------|
G-333333334444444666666666666666----|-3333334444444666666644444444------|
C-----------------------------------|-----------------------------------|
        


D-----------------------------------|-----------------------------------|
A-----------------------------------|-----------------------------------|
F-----------------------------------|-----------------------------------|
G------6---5h6p5--------------------|-----------------------------------|
G---44---4-------6------------------|-----------------------------------|
C-----------------------------------|-----------------------------------|
    .. . .
 
                                                                      x4
D-----------------------------------|-----------------------------------|
A-----------------------------------|-----------------------------------|
F-----------------------------------|-----------------------------------|
G--3--------------------------------|-----------------3-----------------|
G--1---------55/4-------------------|-----------------1-----------------|
C----444444-------444444--4h5/3-----|---444444--4h5p4-------------------|
     ......       ......                ......
   
                                                                     x2
D-----------------------------------|-----------------------------------|
A-----------------------------------|-----------------------------------|
F-----------------------------------|-----------------------------------|
G--0-3-0-2-0-2-5-4-0-5-4-0----------|--0-3-0-2-0-2-5-4-0-5-4-0----------|
G--0-1-0-2-0-2-3-2-0-3-2-0----------|--0-1-0-2-0-2-3-2-0-3-2-0----------|
C-----------------------------------|-----------------------------------|
   . , . . . . . . . . . .             . , . . . . . . . . . .


     the second time through guitar 2 plays
D-----------------------------------|-----------------------------------|
A-----------------------------------|-----------------------------------|
F-----------------------------------|-----------------------------------|
G-----6-5-6-----6-5h6p5-------------|-----6-5-6------6-5h6p5------------|
G--00-------00----------6-----------|--00--------00-----------6---------|
C-----------------------------------|-----------------------------------|
   ..       ..                         ..        .. 

                                                                     x4
D-----------------------------------|-----------------------------------|
A-----------------------------------|-----------------------------------|
F-----------------------------------|-----------------------------------|
G--3--------------------------------|-----------------3-----------------|
G--1---------55/4-------------------|-----------------1-----------------|
C----444444-------444444--4h5/3-----|---444444--4h5p4-------------------|
     ......       ......                ......


                                                                      x2
D-----------------------------------|-----------------------------------|
A-----------------------------------|-----------------------------------|
F-----------------------------------|------------8----------------------|
G--10----10--13b-11-8-10b----10--10-|--11/10/8/6---5-6------------------|
G-----8--------------------8---8----|-----------------------------------|
C-----------------------------------|-----------------------------------|


D-----------------------------------|-----------------------------------|
A-----------------------------------|-----------------------------------|
F-----------------------------------|-----------------------------------|
G-----------------------------------|-----------------------------------|
G-333333334444444666666666666666----|-3333334444444666666644444444------|
C-----------------------------------|-----------------------------------|

D-----------------------------------|-----------------------------------|
A-----------------------------------|-----------------------------------|
F-----------------------------------|-----------------------------------|
G--0-3-0-2-0-2-5-4-0-5-4-0----------|--0-3-0-2-0-2-5-4-0-5-4-0----------|
G--0-1-0-2-0-2-3-2-0-3-2-0----------|--0-1-0-2-0-2-3-2-0-3-2-0----------|
C-----------------------------------|-----------------------------------|
   . , . . . . . . . . . .             . , . . . . . . . . . .

D-----------------------------------|-----------------------------------|
A-----------------------------------|-----------------------------------|
F-----------------------------------|-----------------------------------|
G-----6-5-6-----6-5h6p5-------------|-----6-5-6------6-5h6p5------------|
G--00-------00----------6-----------|--00--------00-----------6---------|
C-----------------------------------|-----------------------------------|
   ..                                  ..        ..            

D-----------------------------------|-----------------------------------|
A-----------------------------------|-----------------------------------|
F-----------------------------------|-----------------------------------|
G-----6-5-6-----6-5h6p5-------------|-----6-5-6---------pick slide---2*-|
G--00-------00----------6-----------|--00--------00---------------------|
C-----------------------------------|-----------------------------------|
   ..       ..                         ..        ..

                                                                      x4
D-----------------------------------|-----------------------------------|
A-----------------------------------|-----------------------------------|
F-----------------------------------|------------8----------------------|
G--10----10--13b-11-8-10b----10--10-|--11/10/8/6---5-(6)----------------|
G-----8--------------------8---8----|-----------------------------------|
C-----------------------------------|-----------------------------------|

hold note while guitar two plays:                    
D-----------------------------------|
A-----------------------------------|
F-----------------------------------|
G-----------------------------------|
G---------------------------------- |
C--33313---33313----33313/----------|

 
both guitars:
D-----------------------------------|
A-----------------------------------|
F-----------------------------------|
G-----------------------------------|
G-----------------------------------|
C--33313---33313---33313p1--000000--|
                            ......
                                                                      x2
one guitar should strum 00000000 on the c string during this
D-----------------------------------|-----------------------------------|
A-----------------------------------|-----------------------------------|
F-----------------------------------|---------------------------nut`----|
G-----------------------------------|---------------------------nut`----|
G--------------------------6-5-4----|---------------------------nut`----|
C--3b-1-3--3b-1-3--3b-1-3-----------|--3b-1-3--3b-1-3--3b-1-3-----------|


D-----------------------------------|-----------------------------------|
A-----------------------------------|-----------------------------------|
F-----------------------------------|-----------------------------------|
G-----------------------------------|-----------------------------------|
G-----------------------------------|-----------------------------------|
C--3b-1-3--3b-1-3--3b-1-3-----------|--3b-1-3--3b-1-3--3b-1-3---000000--|
                                                                ...... 

D-----------------------------------|-----------------------------------|
A-----------------------------------|-----------------------------------|
F-----------------------------------|-----------------------------------|
G-----------------------------------|-----------------------------------|
G-----------------------------------|---------------------------3-4-6---|
C--3b-1-3--3b-1-3--3b-1-3-----------|--3b-1-3--3b-1-3--3b-1-3-----------|
                                                                ^ ^ ^
D-----------------------------------|-----------------------------------|
A-----------------------------------|-----------------------------------|
F-----------------------------------|------------8----------------------|
G--10----10--13b-11-8-10b----10--10-|--11/10/8/6---5-6------------------|
G-----8--------------------8---8----|-----------------------------------|
C-----------------------------------|-----------------------------------|

D-----------------------------------|-----------------------------------|
A-----------------------------------|-----------------------------------|
F---13-13-13-13-13-13---------------|---12-12-12-12-12-12---------------|
G----X--X--X--X--X--X---------------|----X--X--X--X--X--X---------------|
G---11-11-11-11-11-11---------------|---10-10-10-10-10-10---------------|
C-----------------------------------|-----------------------------------|

                                                                      
D-----------------------------------|-----------------------------------|
A-----------------------------------|-----------------------------------|
F---13-13-13-13-13-13-12------------|---13-13-13-13-13-13-12------------|
G----X--X--X--X--X--X--X------------|----X--X--X--X--X--X--X------------|
G---11-11-11-11-11-11-10------------|---11-11-11-11-11-11-10------------|
C-----------------------------------|-----------------------------------|

D-----------------------------------|-----------------------------------|
A-----------------------------------|-----------------------------------|
F---13-13-13-13-13-13---------------|---12-12-12-12-12-12---------------|
G----X--X--X--X--X--X---------------|----X--X--X--X--X--X---------------|
G---11-11-11-11-11-11---------------|---10-10-10-10-10-10---------------|
C-----------------------------------|-----------------------------------|

D-----------------------------------|-----------------------------------|
A-----------------------------------|-----------------------------------|
F---13-13-13-13-13-13-12------------|---13-13-13-13-13-13---------------|
G----X--X--X--X--X--X--X------------|----X--X--X--X--X--X---------------|
G---11-11-11-11-11-11-10------------|---11-11-11-11-11-11---------------|
C-----------------------------------|-----------------------------------|

slight feed at the end of the song
D-----------------------------------|
A-----------------------------------|
F---(13)-(12)-(10)------------------|
G----X----X----X--------------------|
G---(11)-(10)-(8)-------------------|
C-----------------------------------|

*****************************************************************************
legend:
. palm mute
, slight palm mute
/ slide
h hammer on
p pull of
* pinch harmonic
() hold note
` harmonic
^ pull up on whammy bar
*****************************************************************************
lyrics:

Ya!!!!!!!

We have come too far to let our fulfillments fall away.
I must refuse to renounce my integrity.
We stand in defiance to their ethics.

Let the grief that they have inflicted serve us our call to arms.
Are you ready? Are you willing to be the catalyst?
We can no longer be indifferent.
Restore this dying world.

From misery we have turned away.
Ignite the past.
Let the bridges burn.

My eyes watch the unholy be left in the distance.
The division of our souls from our blasphemous tongues.
This is our atonement.

From misery we have turned away.
Ignite the past.
Let the bridges burn.
From sorrow we have turned away to the past.
Let the bridges burn.

I have bled for the truth.
There is no surrender.
Move forward. Commit yourself. Destroy all lies.
From ashes to ashes. From dust to dust.

From misery we have turned away.
Ignite the past.
Let the bridges burn, let the bridges burn.
Tap to rate this tab
 
# A B C D E F G H I J K L M N O P Q R S T U V W X Y Z