Song name
# A B C D E F G H I J K L M N O P Q R S T U V W X Y Z

Killswitch Engage - Arms Of Sorrow tab

Intro (Clean)
Guitar 1
D|------------------------------------------------------------------------|
A|----3------1-----3------3-------3------1----3~--------------------------|
F|--0--0-0-0--0-0-0-0-0-0--0-0--0--0-0-0--0-0-0~--------------------------|
C|-1-1--1-3-3--3-5-5-5-0-0--0--1-1--1-3-3--3--5~--------------------------|
G|------------------------------------------------------------------------|
C|------------------------------------------------------------------------|

Guitar 2 (Clean)
D|------------------------------------------------------------------------|
A|44444444-66666666-88888888-33333333-44444444-66666666-8~----------------|
F|33333333-55555555-77777777-22222222-33333333-55555555-7~----------------|
C|11111111-33333333-55555555-00000000-11111111-33333333-5~----------------|
G|------------------------------------------------------------------------|
C|------------------------------------------------------------------------|

Verse part 1(Distorted)
Guitar 1
D|----------------------------------------------------------------------------|
A|----------------------------------------------------------------------------|
F|5--5--5--5--5--5-----5--5--5-----7~---10~-----------------------------------|
C|3--3--3--3--3--3-----3--3--3-------8~7~--8~7~-------------------------------|
G|------------------5/6-66-66-66-666------------------------------------------|
C|-55-55-55-55-55-55----------------------------------------------------------|
   .. .. .. .. ..   . .. .. ...
                     x4

Guitar 2
D|------------------------------------------------------------------------|
A|------------------------------------------------------------------------|
F|------------------------------------------------------------------------|
C|--5~-1~--3~-------------------------------------------------------------|
G|--5~-1~--3~-------------------------------------------------------------|
C|--5~-1~--3~-------------------------------------------------------------|
       2x then Play same as Guitar 1

Verse part 2
Guitars 1 & 2
D|--------------------------------------------------------------------------|
A|--------------------------------------------------------------------------|
F|---8---8--8-------------------8---8--8------------------------------------|
C|---x---x--x-0000-0-0000-0-----x---x--x-1-0-1-4-3-1------------------------|
G|---6---6--6-0000-0-0000-0-----6---6--6-1-0-1-4-3-1------------------------|
C|000-000-00--0000-0-0000-0--000-000-00--1-0-1-4-3-1------------------------|
  ... ...  .. .... . .... .  ... ... ..
                     2X
Then back to Verse part 1
do it 2 times

Chorus
Guitar 1
D|x\----------------------------------------------------------------------|
A|x\----------------------------------------------------------------------|
F|x\------------------------------7--7------------------------------------|
C|x\11111111--33333333--55555555--x--x------------------------------------|
G|x\11111111--33333333--55555555--5--5------------------------------------|
C|x\11111111--33333333--55555555---00-00----------------------------------|
                                   .. ..
                               2x
Guitar 2 (Not very loud on the CD but its definately there)

D|-----------------------|-----------13-----------------------------------|
A|--11-10--------11------|--13-11-10----11-10-----------------------------|
F|-------12-10-12--------|------------------------------------------------|
C|-----------------------|------------------------------------------------|
G|-----------------------|------------------------------------------------|
C|-----------------------|------------------------------------------------|
               3x
        Do Verse Part 2 again and then Verse Part 1
        Then repeat the Chorus

Bridge
Guitar 1
D|----------------------------|-------------------------------------------|
A|----------------------------|-------------------------------------------|
F|----------------------------|-------------------------------------------|
C|t7p0t3p0t7t7p0t3p0t7t7p0t3p0|t10p0t7p0t10t10p0t7p0t10t10p0t7p0----------|
G|----------------------------|-------------------------------------------|
C|----------------------------|-------------------------------------------|
                x2                              x2

D|----------------------------|-------------------------------------------|
A|----------------------------|-------------------------------------------|
F|----------------------------|-------------------------------------------|
C|t8p0t5p0t8t8p0t5p0t8t8p0t5p0|t7p0t3p0t7t7p0t3p0t7t7p0t3p0---------------|
G|----------------------------|-------------------------------------------|
C|----------------------------|-------------------------------------------|
                x2

D|----------------------------|-------------------------------------------|
A|----------------------------|-------------------------------------------|
F|----------------------------|-------------------------------------------|
C|t5p0t2p0t5t5p0t2p0t5t5p0t2p0|-------------------------------------------|
G|----------------------------|-------------------------------------------|
C|----------------------------|-------------------------------------------|

                      Do the whole thing twice
   (You dont have to tap the notes, it sounds just fine without the tapping)
Guitar 2
D|-----------|------------------------------------------------------------|
A|-----------|------------------------------------------------------------|
F|-----------|------------------------------------------------------------|
C|5~-1~-0~-7~|0000000-00000-00000-3333333-33333-33333-1111111-11111-11111-|
G|5~-1~-0~-7~|0000000-00000-00000-3333333-33333-33333-1111111-11111-11111-|
C|5~-1~-0~-7~|0000000-00000-00000-3333333-33333-33333-1111111-11111-11111-|
              ....... ..... ..... ....... ..... ..... ....... ..... .....
 Part way through 1st time          do all of 2nd time

Finish on
D|------------------------------------------------------------------------|
A|------------------------------------------------------------------------|
F|------------------------------------------------------------------------|
C|0000000-----------------------------------------------------------------|
G|0000000-----------------------------------------------------------------|
C|0000000-----------------------------------------------------------------|
  .......
                        Then repeat the Intro once

                     Then Repeat Chorus
While guitar 1 does the normal progression,
Guitar 2
D|----------------------------|-------------------------------------------|
A|----------------------------|-------------------------------------------|
F|----------------------------|-------------------------------------------|
C|t8p0t5p0t8t8p0t5p0t8t8p0t5p0|t7p0t3p0t7t7p0t3p0t7t7p0t3p0---------------|
G|----------------------------|-------------------------------------------|
C|----------------------------|-------------------------------------------|

                   Repeat and Fade Out
Tap to rate this tab
 
# A B C D E F G H I J K L M N O P Q R S T U V W X Y Z