Song name
# A B C D E F G H I J K L M N O P Q R S T U V W X Y Z

Killswitch Engage - Starting Over tab

Intro
Chords
Guitars 1&2
D|------------------|
A|-5---5---5---6----|
F|-5---4---5---7----|
C|-3---2---3---5----|
G|-3---2---3---5----|
C|-3---2---3---5----|

Intro pt. 2
Guitar 1
D|-------------------------------------------------------------------|
A|-------------------------------------------------------------------|
F|--------/9----------------4/5-/9-7-5---5-----12-10-9----9----------|
C|/7-9h10----10h12-10-/9---------------9--9-5----------12---12-10-7\-|
G|-----------------------10------------------------------------------|
C|-------------------------------------------------------------------|

Guitar 2
D|---------------------------------------/7--------------------------|
A|-------/8-5h6-5------3/5-8-6-5---5--------10-8----8----------------|
F|/5-7h9----------/7-4-----------7---7-5---------10---10-9-----------|
C|---------------------------------------------------------10\-------|
G|-------------------------------------------------------------------|
C|-------------------------------------------------------------------|

Verse
Guitars 1&2
D|------------------------------------------------|
A|--------------------------------5-----------5---|
F|---------------5-4-4/5------5-----5-----5-----5-|
C|---------------7-5-5/7--3-3---3-----0-0---0-----|
G|--000-000-000-0-0-0---0-3-----------0-----------|
C|------------------------3-----------0-----------|

D|----------------------------------------------------|
A|---------------------------------5-----------5------|
F|----------------5-4-4/5------5-----5-----7-----7-5\-|
C|-5--------------5-5-5/5--3-3---3-----5-5---5-----7\-|
G|-5-----------------------3-----------5--------------|
C|-5-555-555-555-5-5-5---5-3-----------5--------------|

Prechorus
Guitar 1
D|----------------------------------------------------------------|
A|----------------------------------------------------------------|
F|--------/9----------------4/5-/9-7-5---5-----12-10-9----9-------|
C|/7-9h10----10h12-10-/9---------------9--9-5----------12---12-10-|
G|-----------------------10---------------------------------------|
C|----------------------------------------------------------------|

Guitar 2
D|------------------------------------------------|
A|--------------------------------5-----------5---|
F|---------------5-4-4/5------5-----5-----5-----5-|
C|---------------7-5-5/7--3-3---3-----0-0---0-----|
G|--000-000-000-0-0-0---0-3-----------0-----------|
C|------------------------3-----------0-----------|

D|-------------------------------------/7-------------|
A|---------------------------------5-----10-8--8------|
F|----------------5-4-4/5------5-----5-------10-10-9\-|
C|-5--------------5-5-5/5--3-3---3--------------------|
G|-5-----------------------3--------------------------|
C|-5-555-555-555-5-5-5---5-3--------------------------|

Chorus

Guitar 1 
Chords 
D|-------------------|
A|-5---5---5---------|
F|-5---5---5---9---7-|
C|-3---0---3---7---5-|
G|-3---0---3---7---5-|
C|-3---0---3---7---5-|

Guitar 2
D|-----3-----3---------1-----1---------3-----3-----|
A|---5--5--5--5--5---5--5--5--5--5---5--5--5--5--5-|
F|--5-5---5-5---5---5-5---5-5---5---5-5---5-5---5--|
C|-3-----3-----3---0-----0-----0---3-----3-----3---|
G|-------------------------------------------------|
C|-------------------------------------------------|


D|--------------------------------|
A|----------5-------8---5---5h6p5-|
F|----5-4-5---4-5-----------------|
C|-/7-------------5---5---5-------|
G|--------------------------------|
C|--------------------------------|

Verse 2
Guitar 1
D|------------------------------------------------|
A|--------------------------------5-----------5---|
F|---------------5-4-4/5------5-----5-----5-----5-|
C|---------------7-5-5/7--3-3---3-----0-0---0-----|
G|--000-000-000-0-0-0---0-3-----------0-----------|
C|------------------------3-----------0-----------|

D|---------------------------------------------------------------|
A|---------------------------------5-----------5-----------------|
F|----------------5-4-4/5------5-----5-----7-----7-5\------------|
C|-5--------------5-5-5/5--3-3---3-----5-5---5-----7\------------|
G|-5-----------------------3-----------5--------------00000000-0-|
C|-5-555-555-555-5-5-5---5-3-----------5-------------------------|

Guitar 2
Chords
D|----------------------------------------|
A|----------------------------------------|
F|-9--12--10-12--7--12--10-12-------------|
C|----------------------------------------|
G|-7--10--8--10--5--10--8--10--00000000-0-|
C|----------------------------------------|

Prechorus 2
Guitars 1&2
D|------------------------|
A|------------------------|
F|------------------------|
C|-10------------------10-|
G|-8-------00000000-0--8--|
C|-8-------------------8--|

Chorus 2
Guitar 1 
Chords 
D|-------------------|
A|-5---5---5---------|
F|-5---5---5---9---7-|
C|-3---0---3---7---5-|
G|-3---0---3---7---5-|
C|-3---0---3---7---5-|

Guitar 2
D|-----3-----3---------1-----1---------3-----3-----|
A|---5--5--5--5--5---5--5--5--5--5---5--5--5--5--5-|
F|--5-5---5-5---5---5-5---5-5---5---5-5---5-5---5--|
C|-3-----3-----3---0-----0-----0---3-----3-----3---|
G|-------------------------------------------------|
C|-------------------------------------------------|


D|--------------------------------|
A|----------5-------8---5---5h6p5-|
F|----5-4-5---4-5-----------------|
C|-/7-------------5---5---5-------|
G|--------------------------------|
C|--------------------------------|

Break 
Guitars 1&2
D|--------------------------------------------------------|
A|--------------------------------------------------------|
F|----------------------9--10-----------------------10-12-|
C|---9-9h10------9-9h10-10-10----9-9h10------9-9h10-10-10-|
G|0-0-0----000000-0-----8--8--0-0-0----000000-0-----8--8--|
C|----------------------8--8------------------------8--8--|

Guitar 1
D|--------------------------------------------------------|
A|--------------------------------------------------------|
F|----------------------9--10-----------------------10-12-|
C|---9-9h10------9-9h10-10-10----9-9h10------9-9h10-10-10-|
G|0-0-0----000000-0-----8--8--0-0-0----000000-0-----8--8--|
C|----------------------8--8------------------------8--8--|

Guitar 2
D|-------------------------------------------------------|
A|-------------------------------------------------------|
F|---7-7h9------7-7h9--9--10----7-7h9-------7-7h9--10-12-|
C|---------------------10-10-----------------------10-10-|
G|0-0-0---000000-0-----8--8--0-0-0----000000-0-----8--8--|
C|---------------------8--8------------------------8--8--|

Break 2
Guitar 1
Clean
D|-----3-----3---------1-----1---------3-----3-----|
A|---5--5--5--5--5---5--5--5--5--5---5--5--5--5--5-|
F|--5-5---5-5---5---5-5---5-5---5---5-5---5-5---5--|
C|-3-----3-----3---0-----0-----0---3-----3-----3---|
G|-------------------------------------------------|
C|-------------------------------------------------|

Guitars 1&2
Distorted
D|------|
A|------|
F|------|
C|-7--5-|
G|-8--7-|
C|------|

Chorus 3

Guitar 1 
Chords 
D|-------------------|
A|-5---5---5---------|
F|-5---5---5---9---7-|
C|-3---0---3---7---5-|
G|-3---0---3---7---5-|
C|-3---0---3---7---5-|

Guitar 2
D|-----3-----3---------1-----1---------3-----3-----|
A|---5--5--5--5--5---5--5--5--5--5---5--5--5--5--5-|
F|--5-5---5-5---5---5-5---5-5---5---5-5---5-5---5--|
C|-3-----3-----3---0-----0-----0---3-----3-----3---|
G|-------------------------------------------------|
C|-------------------------------------------------|


D|--------------------------------|
A|----------5-------8---5---5h6p5-|
F|----5-4-5---4-5-----------------|
C|-/7-------------5---5---5-------|
G|--------------------------------|
C|--------------------------------|



Tap to rate this tab
 
# A B C D E F G H I J K L M N O P Q R S T U V W X Y Z