Song name
# A B C D E F G H I J K L M N O P Q R S T U V W X Y Z

Killswitch Engage - My Last Seranade tab

Song: My Last Serenade
Artist: Killswitch Engage
Album: Alive or Just Breathing
Tabbed by: Swanny1989

Here is the real way to play this song 100% accurate. Enjoy, Please rate.

'Gtr I' - Electric guitar w/ distortion
'Gtr II' - Electric guitar w/ distortion
'Gtr III' - Acoustic guitar
'Gtr IV' - Acoustic guitar

All guitars tuned to CGCFAD

 Gtr III
|-1~--------1~--------1~--------1~--------|
|-3~--------1~--------1~--------1~--------|
|-2~--------0~--------3~--------3~--------|
|-0~--------2~--------3~--------3~--------|
|-0~--------3~--------1~--------1~--------|
|-0~--------------------------------------|
|Gtr IV
|-x---------x---------x---------x---------|
|-6~--------5~--------6~--------6~--------|
|-5~--------5~--------5~--------5~--------|
|-3~--------3~--------3~--------3~--------|
|-x---------x---------x---------x---------|
|-x---------x---------x---------x---------|
  Ah        ah        Ah...
 (play 3X, fading in the first time)

 Gtr III
|-1~--------1----|
|-3~--------1----|
|-2~--------0----|
|-0~--------2----|
|-0~--------3----|
|-0~-------------|
|Gtr IV
|-x---------x----|
|-6~--------5----|
|-5~--------5----|
|-3~--------3----|
|-x---------x----|
|-x---------x----|
 This is   my last

 Gtrs I & II
|-----------------------------------------|
|-----------------------------------------|
|-----------------------------------------|
|-----------------------------------------|
|-3/4-------3/4-------3/4-----------------|
|-3/4-0-0-0-3/4-0-0-0-3/4-0-0-0-4320-4320-|
 (play 3X w/ slight palm mute through out)

(Riff A)
 Gtrs I & II
|-----------------------------------------|
|-----------------------------------------|
|-----------------------------------------|
|-----------------------------------------|
|-1/4-------1/4-------1/4-----------------|
|-1/4-0-0-0-1/4-0-0-0-1/4-0-0-0-4210-5320-|
Pm    . . .     . . .     . . . .... ....

(Verse Main Riff)
 Gtrs I & II
|-----------------------------------------------------------|
|-----------------------------------------------------------|
|-----------------------------------------------------------|
|-----------------------------------------3-----------------|
|-1-0-1-3-1-0---0-1-3-1-0---1-0-1-3-1-0---1-0-0-3-0-0-5-0-0-|
|-1-0-1-3-1-0---0-1-3-1-0---1-0-1-3-1-0-0---0-0-3-0-0-5-0-0-|
Pm  . . . . .   . . . . .     . . . . . .   . .   . .   . .
 (play 4X)

 (repeat Riff A 3X)

 Gtrs I & II
|------------------------------------------|
|------------------------------------------|
|------------------------------------------|
|------------------------------------------|
|-1/4-------1/4-------1/4--------------3p0-|
|-1/4-0-0-0-1/4-0-0-0-1/4-0-0-0-4210-0-3p0-|
Pm    . . .     . . .     . . . .... .

(Pre-chorus Riff)
 Gtrs I & II
|------------------------------------------------------------------------|
|------------------------------------------------------------------------|
|------------------------------------------------------------------------|
|---------0--------0--------0----10---10---10-10---5/7-\5---3/5-\3-------|
|-0-0-0-0-0--0-0-0-0--0-0-0-0-----8----7----7/-8---3/5-\3---1/3-\1---3p0-|
|-0-0-0-0-0--0-0-0-0--0-0-0-0--0----0----0-------0--------0--------0-3p0-|
Pm. . . .    . . .    . . .    .    .    .       .        .        . 
 (play 4X)

 Gtr I
|--------------------------------------------------------------|
|--------------------------------------------------------------|
|--------------0-0-0-0-0-0--3-3-3-3-3-3------------------------|
|-0-0-0-0-0-0--2-2-2-2-2-2--3-3-3-3-3-3------2--3p2--------2h3-|
|-0-0-0-0-0-0--3-3-3-3-3-3--1-1-1-1-1-1-----------------3------|
|-0-0-0-0-0-0----------------------------0-3--------0-3--------|
|Gtr II                             Pm   . .        . .
|--------------------------------------------------------------|
|-6-6-6-6-6-6-\5-5-5-5-5-5-/6-6-6-6-6-6------------------------|
|-5-5-5-5-5-5--5-5-5-5-5-5--5-5-5-5-5-5------------------------|
|-3-3-3-3-3-3--3-3-3-3-3-3--3-3-3-3-3-3------2--3p2--------2h3-|
|-------------------------------------------------------3------|
|----------------------------------------0-3--------0-3--------|
Pm                                       . .        . .
  This is      my last      serenade...
 (play 3X)

 Gtr I
|---------------------------------------|
|---------------------------------------|
|--------------0-0-0-0-0-0--3-3-3-3-3-3-|
|-0-0-0-0-0-0--2-2-2-2-2-2--3-3-3-3-3-3-|
|-0-0-0-0-0-0--3-3-3-3-3-3--1-1-1-1-1-1-|
|-0-0-0-0-0-0---------------------------|
|Gtr II
|---------------------------------------|
|-6-6-6-6-6-6-\5-5-5-5-5-5-/6-6-6-6-6-6-|
|-5-5-5-5-5-5--5-5-5-5-5-5--5-5-5-5-5-5-|
|-3-3-3-3-3-3--3-3-3-3-3-3--3-3-3-3-3-3-|
|---------------------------------------|
|---------------------------------------|
 From yourself you can't run a wayyyyy

 Gtrs I & II
|----------------------------------------------------------------------|
|----------------------------------------------------------------------|
|----------------------------------------------------------------------|
|-------10/12----------------------------------------------------------|
|-----8-------10-----------------------------------------------------3-|
|-0-7------------8b^^^-0-0-0-0-0-0----0-0-0-0-0-0-0----0-0-0-0-0-0-0-3-|
Pm. . .        .       . . . . . .    . . . . . . .    . . . . . . 

 Gtrs I & II
|----------------------------------------------------------------------|
|----------------------------------------------------------------------|
|----------------------------------------------------------------------|
|-------10/12----------------------------------------------------------|
|-----8-------10-----------------------------------------------------3-|
|-5/7------------8^^^^-0-0-0-0-0-0----0-0-0-0-0-0-0----0-0-0-0-0-0-0-3-|
Pm    .        .       . . . . . .    . . . . . . .    . . . . . . 
 (play 2X)

 Gtrs I & II
|----------------------------------|
|----------------------------------|
|----------------------------------|
|-------10/12----------------------|
|-----8-------10-------------8p7---|
|-5/7------------8b^^^-8-0-0-----0-|
Pm    .        .           .     . 

 Gtr II
|-----------------------------------------------------------|
|-----------------------------------------------------------|
|-5b7-7-7-7-7-7-7-7-7-7-7-7-7-7-7-7-7-7-7-7-7-7-7-7-7-7-7-7-|
|-----------------------------------------------------------|
|-----------------------------------------------------------|
|-----------------------------------------------------------|
|Gtr I
|-----------------------------------------------------------|
|-----------------------------------------------------------|
|-----------------------------------------------------------|
|-----------------------------------------3-----------------|
|-1-0-1-3-1-0---0-1-3-1-0---1-0-1-3-1-0---1-0-0-3-0-0-5-0-0-|
|-1-0-1-3-1-0---0-1-3-1-0---1-0-1-3-1-0-0---0-0-3-0-0-5-0-0-|
Pm  . . . . .   . . . . .     . . . . . .   . .   . .   . .

 Gtr II
|-----------------------------------------------------------|
|-----------------------------------------------------------|
|-7b10-10-10-10-10-10-10-10r7-7-7-7-7-7-7-7-7-7-7-7-7-7-7---|
|-----------------------------------------------------------|
|-----------------------------------------------------------|
|-----------------------------------------------------------|
|Gtr I
|-----------------------------------------------------------|
|-----------------------------------------------------------|
|-----------------------------------------------------------|
|-----------------------------------------3-----------------|
|-1-0-1-3-1-0---0-1-3-1-0---1-0-1-3-1-0---1-0-0-3-0-0-5-0-0-|
|-1-0-1-3-1-0---0-1-3-1-0---1-0-1-3-1-0-0---0-0-3-0-0-5-0-0-|
Pm  . . . . .   . . . . .     . . . . . .   . .   . .   . .

 (repeat Verse Main Riff 2X)

 Gtrs I & II
|--------|
|--------|
|--------|
|-7\-----|
|-5\-3p0-|
|----3p0-|

 (repeat Pre-chorus Riff 4X)

 Gtr I
|--------------------------------------------------------------|
|--------------------------------------------------------------|
|--------------0-0-0-0-0-0--3-3-3-3-3-3------------------------|
|-0-0-0-0-0-0--2-2-2-2-2-2--3-3-3-3-3-3------2--3p2--------2h3-|
|-0-0-0-0-0-0--3-3-3-3-3-3--1-1-1-1-1-1-----------------3------|
|-0-0-0-0-0-0----------------------------0-3--------0-3--------|
|Gtr II                             Pm   . .        . .
|--------------------------------------------------------------|
|-6-6-6-6-6-6-\5-5-5-5-5-5-/6-6-6-6-6-6------------------------|
|-5-5-5-5-5-5--5-5-5-5-5-5--5-5-5-5-5-5------------------------|
|-3-3-3-3-3-3--3-3-3-3-3-3--3-3-3-3-3-3------2--3p2--------2h3-|
|-------------------------------------------------------3------|
|----------------------------------------0-3--------0-3--------|
Pm                                       . .        . .
  This is      my last      serenade...
 (play 2X)

 Gtr I
|--------------------------------------------------------------|
|--------------------------------------------------------------|
|--------------0-0-0-0-0-0--3-3-3-3-3-3------------------------|
|-0-0-0-0-0-0--2-2-2-2-2-2--3-3-3-3-3-3------2--3p2--------2h3-|
|-0-0-0-0-0-0--3-3-3-3-3-3--1-1-1-1-1-1-----------------3------|
|-0-0-0-0-0-0----------------------------0-3--------0-3--------|
|Gtr II                             Pm   . .        . .
|--------------------------------------------------------------|
|-6-6-6-6-6-6-\5-5-5-5-5-5-/6-6-6-6-6-6------------------------|
|-5-5-5-5-5-5--5-5-5-5-5-5--5-5-5-5-5-5------------------------|
|-3-3-3-3-3-3--3-3-3-3-3-3--3-3-3-3-3-3------5--7p5--------5h7-|
|-------------------------------------------------------7------|
|----------------------------------------0-7--------0-7--------|
Pm                                       . .        . .
  This is      my last      serenade

 Gtr I
|------------------------------------------------------------|
|------------------------------------------------------------|
|--------------0-0-0-0-0-0--3-3-3-3-3-3----------------------|
|-0-0-0-0-0-0--2-2-2-2-2-2--3-3-3-3-3-3----------------------|
|-0-0-0-0-0-0--3-3-3-3-3-3--1-1-1-1-1-1----------------------|
|-0-0-0-0-0-0------------------------------------------------|
|Gtr II
|------------------------------------------------------------|
|-6-6-6-6-6-6-\5-5-5-5-5-5-/6-6-6-6-6-6~---------------------|
|-5-5-5-5-5-5--5-5-5-5-5-5--5-5-5-5-5-5~---------------------|
|-3-3-3-3-3-3--3-3-3-3-3-3--3-3-3-3-3-3~-hold-this-chord-for-|
|---------------------------------------feedback-on-through--|
|---------------------------------------to-the-end-----------|
 From yourself you can't run a wayyyyy

 Gtr II
|------------------------------------------|
|-(6)~-------------------------------------|
|-(5)~-------------------------------------|
|-(3)~-------------------------------------|
|------------------------------------------|
|------------------------------------------|
|Gtr III
|--1~--------1~--------1~--------1~--------|
|--3~--------1~--------1~--------1~--------|
|--2~--------0~--------3~--------3~--------|
|--0~--------2~--------3~--------3~--------|
|--0~--------3~--------1~--------1~--------|
|--0~--------------------------------------|
|Gtr IV
|--x---------x---------x---------x---------|
|--6~--------5~--------6~--------6~--------|
|--5~--------5~--------5~--------5~--------|
|--3~--------3~--------3~--------3~--------|
|--x---------x---------x---------x---------|
|--x---------x---------x---------x---------|
  This is   my last   seerenaaaaade
 (repeat this as necessary)


Tap to rate this tab
# A B C D E F G H I J K L M N O P Q R S T U V W X Y Z