Song name
# A B C D E F G H I J K L M N O P Q R S T U V W X Y Z

Killswitch Engage - Rose Of Sharyn tab

  This is how i play this song hope u like it please rate and vote this tab


		Intro Both Guitars

D|--------------------------------------------------------------|
A|--------------------------------------------------------------|
F|--------------------------------------------------------------| 4X
C|-12\--0--000000--8-7--0000--1-0--0000--8-7H8P7----------------|
G|-12\--0--000000--6-5--0000--1-0--0000-----------7H8P7---------|
C|-12\--0--000000-------0000--1-0--0000------------------8H10P8-|
           ......       ....       ....

		Verse Both Guitars

D|----------------------------------------------------------------------|
A|----------------------------------------------------------------------|
F|----------------------------------------------------------------------|
C|-----------------------------------------------------------10------10-|
G|---5----7---8----5---7---8----5----7---8----5---7---8--7-7-----7-7----|
C|-0---0---0----0----0---0----8----8---8----5---5---5-------------------|
   .   .   .    .    .   .    .    .   .    .   .   .    . .     . .


D|-------------------------------------------------------------------|
A|-------------------------------------------------------------------|
F|-------------------------------------------------------------------|
C|-----------------------------------------------------------10--7\--|
G|---5----7---8----5---7---8----5----7---8----5---7---8--7-7-----7\--|
C|-0---0---0----0----0---0----8----8---8----5---5---5------------7\--|
   .   .   .    .    .   .    .    .   .    .   .   .    . .


		Chorus Guitar 1


D|----------------------------------------------------------|
A|----------------------------------------------------------|
F|----------------------------------------------------------|
C|-1--11111111--3--33333333--5--55555555--8--888888--88--33-|
G|-1--11111111--3--33333333--5--55555555--8--888888--88--33-|
C|-1--11111111--3--33333333--5--55555555--8--888888--88--33-|
      ........     ........     ........     ......

D|----------------------------------------------------------------|
A|----------------------------------------------------------------|
F|----------------------------------------------------------------|
C|-1--11111111--3--33333333--5--55555555--8--888888---------------|
G|-1--11111111--3--33333333--5--55555555--8--888888--Pick Scrape--|
C|-1--11111111--3--33333333--5--55555555--8--888888---------------|
      ........     ........     ........     ......

                 Chorus Guitar 2

D|-----------------------------------------------------------------------|
A|-----------------------------------------------------------------------|
F|-2--------22222-33333-----------77777-88888--------77777-88888---------|
C|-1--11111-11111-11111--3--33333-33333-33333--55555-55555-55555--88--33-|
G|-1--11111-11111-11111--3--33333-33333-33333--55555-55555-55555--88--33-|
C|-1--11111-11111-11111--3--33333-33333-33333--55555-55555-55555--88--33-|
      .....                 .....              .....

D|----------------------------------------------------------|
A|----------------------------------------------------------|
F|----------------------------------------------------------|
C|--0--000000--8-7--0000--1-0--0000--8-7H8P7----------------|
G|--0--000000--6-5--0000--1-0--0000-----------7H8P7---------|
C|--0--000000-------0000--1-0--0000------------------8H10P8-|
       ......       ....       ....

D|--------------------------------------------------------|
A|---------------------------------------------------7*---|
F|--------------------------------------------------------|
C|--0--000000--8-7--0000--1-0--0000--8-7H8P7--------------|
G|--0--000000--6-5--0000--1-0--0000-----------7H8P7-------|
C|--0--000000-------0000--1-0--0000-----------------------|
       ......       ....       ....

D|----------------------------------------------------------------------|
A|----------------------------------------------------------------------|
F|----------------------------------------------------------------------|
C|-----------------------------------------------------------10------10-|
G|---5----7---8----5---7---8----5----7---8----5---7---8--7-7-----7-7----|
C|-0---0---0----0----0---0----8----8---8----5---5---5-------------------|
   .   .   .    .    .   .    .    .   .    .   .   .    . .     . .


D|---------------------------------------------------------------------------|
A|---------------------------------------------------------------------------|
F|---------------------------------------------------------------------------|
C|-----------------------------------------------------------10-------10--7\-|
G|---5----7---8----5---7---8----5----7---8----5---7---8--7-7------7-7-----7\-|
C|-0---0---0----0----0---0----8----8---8----5---5---5---------------------7\-|
   .   .   .    .    .   .    .    .   .    .   .   .    . .      . .


	Chorus Guitar 1


D|----------------------------------------------------------|
A|----------------------------------------------------------|
F|----------------------------------------------------------|
C|-1--11111111--3--33333333--5--55555555--8--888888--88--33-|
G|-1--11111111--3--33333333--5--55555555--8--888888--88--33-|
C|-1--11111111--3--33333333--5--55555555--8--888888--88--33-|
      ........     ........     ........     ......

D|----------------------------------------------------------------|
A|----------------------------------------------------------------|
F|----------------------------------------------------------------|
C|-1--11111111--3--33333333--5--55555555--8--888888---------------|
G|-1--11111111--3--33333333--5--55555555--8--888888--Pick Scrape--|
C|-1--11111111--3--33333333--5--55555555--8--888888---------------|
      ........     ........     ........     ......


    Chorus Guitar 2

D|-----------------------------------------------------------------------|
A|-----------------------------------------------------------------------|
F|-2--------22222-33333-----------77777-88888--------77777-88888---------|
C|-1--11111-11111-11111--3--33333-33333-33333--55555-55555-55555--88--33-|
G|-1--11111-11111-11111--3--33333-33333-33333--55555-55555-55555--88--33-|
C|-1--11111-11111-11111--3--33333-33333-33333--55555-55555-55555--88--33-|
      .....                 .....              .....

   Both Guitars


D|------------------------------------------------------------|
A|------------------------------------------------------------|
F|------------------------------------------------------------|
C|-1----8---7---8---7---5--7\--3----8---7---8---7---5--7\--5--|
G|-1-----------------------7\--3-----------------------7\--5--|
C|-1--0---0---0---0---0----7\--3--0---0---0---0---0----7\--5--|
      .   .   .   .   .           .   .   .   .   .


D|-------------------------------------------------|
A|-------------------------------------------------|
F|-------------------------------------------------|
C|-00-5-----8--00-5-----8--00-8-----8--00-8--00-3--| 2X
G|-00-5---7----00-5---7----00-8---7----00-8--00-3--|
C|-00-5-0------00-5-0------00-8-0------00-8--00-3--|
   ..   . .    ..   . .    ..   . .    ..    ..

	Or Guitar 2 Can Do This If Choosen TO


D|----------------------------------------------------------------|
A|----------------------------------------------------------------|
F|----------------------------------------------------------------|
C|-11111111--33333333--55-5-55-5-55-5-55-5--88-8-88-8-88-8--33-3--|
G|-11111111--33333333--55-5-55-5-55-5-55-5--88-8-88-8-88-8--33-3--|
C|-11111111--33333333--55-5-55-5-55-5-55-5--88-8-88-8-88-8--33-3--|
   ........  ........  ..   ..   ..   ..    ..   ..   ..    ..

   Guitar 1

D|-----------------|
A|-----------------|
F|-----------------|
C|-1~--3~--5~--8~--|
G|-1~--3~--5~--8~--|
C|-1~--3~--5~--8~--|

   Guitar 2 Clean


D|--------------------------------------------------------------------------|
A|-11P10------11P10------11P10----11P10-----11P10-----11P10-----------------|
F|-------10---------10--------10--------10--------10--------10---10/-8/-7---|
C|------------------------------------------------------------------------8-|
G|--------------------------------------------------------------------------|
C|--------------------------------------------------------------------------|


 Outtro Til End OF Song

  Both Guitars


D|------------------------------------------------------------|
A|------------------------------------------------------------|
F|------------------------------------------------------------|
C|-1----8---7---8---7---5--7\--3----8---7---8---7---5--7\--5--|
G|-1-----------------------7\--3-----------------------7\--5--|
C|-1--0---0---0---0---0----7\--3--0---0---0---0---0----7\--5--|
      .   .   .   .   .           .   .   .   .   .


D|-------------------------------------------------|
A|-------------------------------------------------|
F|-------------------------------------------------|
C|-00-5-----8--00-5-----8--00-8-----8--00-8--00-3--| 2X
G|-00-5---7----00-5---7----00-8---7----00-8--00-3--|
C|-00-5-0------00-5-0------00-8-0------00-8--00-3--|
   ..   . .    ..   . .    ..   . .    ..    ..

	Or Guitar 2 Can Do This If Choosen TO


D|----------------------------------------------------------------|
A|----------------------------------------------------------------|
F|----------------------------------------------------------------|
C|-11111111--33333333--55-5-55-5-55-5-55-5--88-8-88-8-88-8--33-3--|
G|-11111111--33333333--55-5-55-5-55-5-55-5--88-8-88-8-88-8--33-3--|
C|-11111111--33333333--55-5-55-5-55-5-55-5--88-8-88-8-88-8--33-3--|
   ........  ........  ..   ..   ..   ..    ..   ..   ..    ..


Well Thats It Hope You Guys Like It Please Vote And Rate This Tab Killswitch Rocks!!
Tap to rate this tab
 
# A B C D E F G H I J K L M N O P Q R S T U V W X Y Z