Song name
# A B C D E F G H I J K L M N O P Q R S T U V W X Y Z

Killswitch Engage - Break The Silence tab

-------------------------------------------------------------------------------
	           Break The Silence - Killswitch Engage
-------------------------------------------------------------------------------
Tabbed by:Shreddies147
Email:shawnkade@yahoo.ca

This is the complete, IMO most correct, and probably EASIEST lead guitar's 
tablature for this sick song. 
I do believe this is Adam D's part.
All of this was tabbed by ear, and im pretty sure this is on-the-dot how its played. 
If you have any questions about this tab, or some feedback, please feel free to 
express yourself. ENJOY \m/(>_<)\m/

IM BROWN(SOUTH-ASIAN) AND IM PROUD!!!!!

Tuning:From 6th-1st   CGCFAD



D|---------------------------------------------------------------------------|
A|---------------------------------------------------------------------------|
F|---------------------------------------------------------------------------|
C|-3p0--3p0--3p0---7p0-5p0-3p0-5p0--5p0--5p0---8p0-7p0-5p0-7p0--7p0--7p0-----|
G|-----5----5----5-----------------7----7----7-----------------8----8----8---|
C|---------------------------------------------------------------------------|
       *    *    *                 *    *    *                 *    *    *


D|---------------------------------------------------------------------------|
A|---------------------------------------------------------------------------|
F|---------------------------------------------------------------------------|
C|-10p0-8p0-7p0--------------------------------------------------------------|
G|-------------------12h13p12---------------7h8p7----------------------------|
C|--------------12h15--------h15p12h15-7h10------h10p7h10--------------------|



D|---------------------------------------------------------------------------|
A|---------------------------------------------------------------------------|
F|---------------------------------------------------------------------------|
C|-3p0--3p0--3p0---7p0-5p0-3p0-5p0--5p0--5p0---8p0-7p0-5p0-7p0--7p0--7p0-----|
G|-----5----5----5-----------------7----7----7-----------------8----8----8---|
C|---------------------------------------------------------------------------|
       *    *    *                 *    *    *                 *    *    *


D|---------------------------------------------------------------------------|
A|---------------------------------------------------------------------------|
F|---------------------------------------------------------------------------|
C|------------------------8---10---7--\--------------------------------------|
G|------12h13p12----------8---10---8--\--------------------------------------|
C|-12h15--------h15p12h15-8---10---7--\--------------------------------------|



D|---------------------------------------------------------------------------|
A|---------------------------------------------------------------------------|
F|---------------------------------------------------------------------------|
C|-----------------------------------3---5---8--\----------------------------|
G|--------------------7h8p7----------3---5---8--\----------------------------|
C|-0-00-00-000000-7h10-----h10p7h10--3---5---8--\----------------------------|
     ** ** ******


D|---------------------------------------------------------------------------|
A|---------------------------------------------------------------------------|
F|---------------------------------------------------------------------------|
C|---------------------------------------8---10---7--\-----------------------|
G|---------------------12h13p12----------8---10---8--\-----------------------|
C|-0-00-00-000000-12h15--------h15p12h15-8---10---7--\-----------------------|
   * ** ** ****** 


D|---------------------------------------------------------------------------|
A|---------------------------------------------------------------------------|
F|---------------------------------------------------------------------------|
C|-----------------------------------3---5---8--\----------------------------|
G|--------------------7h8p7----------3---5---8--\----------------------------|
C|-0-00-00-000000-7h10-----h10p7h10--3---5---8--\----------------------------|
   * ** ** ******


D|---------------------------------------------------------------------------|
A|---------------------------------------------------------------------------|
F|---------------------------------------------------------------------------|
C|-----------------8---10---7~------\----------------------------------------|
G|-----------------8---10---8~------\----------------------------------------|
C|-0-00-00-000000--8---10---7~------\----------------------------------------|
   * ** ** ******


D|---------------------------------------------------------------------------|
A|---------------------------------------------------------------------------|
F|-----------------------------------3---------------------------------------|
C|-----------------------------------3---------------------------------------|
G|-----------------------------------1---------------------------------------|
C|-00-000-000-000-000-000-000-2/3 00-----------------------------------------|
   ** *** *** *** *** *** ***     **


D|---------------------------------------------------------------------------|
A|---------------------------------------------------------------------------|
F|---------------------------------------------------------------------------|
C|-----------------------------------1---------------------------------------|
G|-----------------------------------1---------------------------------------|
C|-00-000-000-000-000-000-000-5/6-00-1---------------------------------------|
   ** *** *** *** *** *** ***     **


D|---------------------------------------------------------------------------|
A|---------------------------------------------------------------------------|
F|-----------------------------------3---------------------------------------|
C|-----------------------------------3---------------------------------------|
G|-----------------------------------1---------------------------------------|
C|-00-000-000-000-000-000-000-2/3 00-----------------------------------------|
   ** *** *** *** *** *** ***     **


D|---------------------------------------------------------------------------|
A|---------------------------------------------------------------------------|
F|---------------------------------------------------------------------------|
C|-----------------0-3-5-0-10\---1~------------------------------------------|
G|-----------------0-3-5-0-10\---1~------------------------------------------|
C|-00-000-000-000-00-3-5-0-10\---1~------------------------------------------|
   ** *** *** *** ** * * *


D|---------------------------------------------------------------------------|
A|---------------------------------------------------------------------------|
F|-----------------------------------3---------------------------------------|
C|-----------------------------------3---------------------------------------|
G|-----------------------------------1---------------------------------------|
C|-00000000000000000000000000-2/3-00-----------------------------------------|
   **************************     **


D|---------------------------------------------------------------------------|
A|---------------------------------------------------------------------------|
F|---------------------------------------------------------------------------|
C|-----------------------------------1---------------------------------------|
G|-----------------------------------1---------------------------------------|
C|-00000000000000000000000000-5/6-00-1---------------------------------------|
   **************************     **


D|---------------------------------------------------------------------------|
A|---------------------------------------------------------------------------|
F|-----------------------------------3---------------------------------------|
C|-----------------------------------3---------------------------------------|
G|-----------------------------------1---------------------------------------|
C|-00000000000000000000000000-2/3-00-----------------------------------------|
   **************************     **


D|---------------------------------------------------------------------------|
A|---------------------------------------------------------------------------|
F|---------------------------------------------------------------------------|
C|--------------------------8---10---7--\------------------------------------|
G|----------------------15\-8---10---8--\------------------------------------|
C|-00000000000000000000-----8---10---7--\------------------------------------|
   ********************


D|---------------------------------------------------------------------------|
A|---------------------------------------------------------------------------|
F|---------------------------------------------------------------------------|
C|-----------------------------------3---5---8--\----------------------------|
G|--------------------7h8p7----------3---5---8--\----------------------------|
C|-0-00-00-000000-7h10-----h10p7h10--3---5---8--\----------------------------|
   * ** ** ******


D|---------------------------------------------------------------------------|
A|---------------------------------------------------------------------------|
F|---------------------------------------------------------------------------|
C|---------------------------------------8---10---7--\-----------------------|
G|---------------------12h13p12----------8---10---8--\-----------------------|
C|-0-00-00-000000-12h15--------h15p12h15-8---10---7--\-----------------------|
   * ** ** ****** 


D|---------------------------------------------------------------------------|
A|---------------------------------------------------------------------------|
F|---------------------------------------------------------------------------|
C|-----------------------------------3---5---8--\----------------------------|
G|--------------------7h8p7----------3---5---8--\----------------------------|
C|-0-00-00-000000-7h10-----h10p7h10--3---5---8--\----------------------------|
   * ** ** ******


D|---------------------------------------------------------------------------|
A|---------------------------------------------------------------------------|
F|---------------------------------------------------------------------------|
C|----------------------h8----------12p810p8---------------------------------|
G|------------12\-0h8h12--h12p8h10p8--------12p810p8-------------------------|
C|-0-00-00-00-12\------------------------------------------------------------|
   * ** ** **

  Repeat this riff 8 times, 14 times if you dont want to play the backing riff
D|---------------------------------------------------------------------------|
A|---------------------------------------------------------------------------|
F|---------------------------------------------------------------------------|
C|-------h8----------12p810p8------------------------------------------------|
G|-0h8h12--h12p8h10p8--------12p810p8----------------------------------------|
C|---------------------------------------------------------------------------|


  Backing Riff . Play 6 times (Optional)
D|---------------------------------------------------------------------------|
A|---------------------------------------------------------------------------|
F|---------------------------------------------------------------------------|
C|--------h12------------15p1213p12------------------------------------------|
G|-0h12h15---h15p12h13p12----------15p1213p12--------------------------------|
C|---------------------------------------------------------------------------|



D|---------------------------------------------------------------------------|
A|---------------------------------------------------------------------------|
F|---------------------------------------------------------------------------|
C|-0---------------8---10---7--\---------------------------------------------|
G|-0-0-0-0-0-0-0-0-8---10---8--\---------------------------------------------|
C|-0-0-0-0-0-0-0-0-8---10---7--\---------------------------------------------|
     * * * * * * *


D|---------------------------------------------------------------------------|
A|---------------------------------------------------------------------------|
F|-----------------------------------3---------------------------------------|
C|-----------------------------------3---------------------------------------|
G|-----------------------------------1---------------------------------------|
C|-00-000-000-000-000-000-000-2/3 00-----------------------------------------|
   ** *** *** *** *** *** ***     **


D|---------------------------------------------------------------------------|
A|---------------------------------------------------------------------------|
F|---------------------------------------------------------------------------|
C|-----------------------------------1---------------------------------------|
G|-----------------------------------1---------------------------------------|
C|-00-000-000-000-000-000-000-5/6-00-1---------------------------------------|
   ** *** *** *** *** *** ***     **


D|---------------------------------------------------------------------------|
A|---------------------------------------------------------------------------|
F|-----------------------------------3---------------------------------------|
C|-----------------------------------3---------------------------------------|
G|-----------------------------------1---------------------------------------|
C|-00-000-000-000-000-000-000-2/3 00-----------------------------------------|
   ** *** *** *** *** *** ***     **


D|---------------------------------------------------------------------------|
A|---------------------------------------------------------------------------|
F|---------------------------------------------------------------------------|
C|-----------------0-3-5-0-10\---1~------------------------------------------|
G|-----------------0-3-5-0-10\---1~------------------------------------------|
C|-00-000-000-000-00-3-5-0-10\---1~------------------------------------------|
   ** *** *** *** ** * * *

  Optional. Repeat 2 times
D|---------------------------------------------------------------------------|
A|---------------------------------------------------------------------------|
F|---------------------------------------------------------------------------|
C|--------h12------------15p1213p12------------------------------------------|
G|-0h12h15---h15p12h13p12----------15p1213p12--------------------------------|
C|---------------------------------------------------------------------------|


  Start after 1st repeat of riff above, repeat 9 times.15 times if you want to skip backing riff
D|---------------------------------------------------------------------------|
A|---------------------------------------------------------------------------|
F|---------------------------------------------------------------------------|
C|-------h8----------12p810p8------------------------------------------------|
G|-0h8h12--h12p8h10p8--------12p810p8----------------------------------------|
C|---------------------------------------------------------------------------|


  Backing Riff. Repeat 6 times (Optional)
D|---------------------------------------------------------------------------|
A|---------------------------------------------------------------------------|
F|---------------------------------------------------------------------------|
C|--------h12------------15p1213p12------------------------------------------|
G|-0h12h15---h15p12h13p12----------15p1213p12--------------------------------|
C|---------------------------------------------------------------------------|



D|---------------------------------------------------------------------------|
A|---------------------------------------------------------------------------|
F|---------------------------------------------------------------------------|
C|-0---------------12-12-12-12-12-12-12-12-----------------------------------|
G|-0-0-0-0-0-0-0-0-12-12-12-12-12-12-12-12-----------------------------------|
C|-0-0-0-0-0-0-0-0-12-12-12-12-12-12-12-12-----------------------------------|
     * * * * * * *

  Clean part, distortionless. repeat 3 times
D|---------------------------------------------------------------------------|
A|---------------------------------------------------------------------------|
F|-15~~---14~~~------9~~---10~~------9~~---10~~------10~---9~~~--------------|
C|-x------x----------x-----x---------x-----x---------x-----x-----------------|
G|-13~~---12~~~------7~~---8~~~------7~~---8~~~------8~~---7~~~--------------|
C|---------------------------------------------------------------------------|


  Clean part, distortionless. play once
D|---------------------------------------------------------------------------|
A|---------------------------------------------------------------------------|
F|-15~~---14~~~------9~~---10~~------10~~~~~~~-------------------------------|
C|-x------x----------x-----x---------x---------------------------------------|
G|-13~~---12~~~------7~~---8~~~------8~~~~~~~~-------------------------------|
C|---------------------------------------------------------------------------|


  Distortion UP (add a little tape-echo for this part to sound epic =P)
D|---------------------------------------------------------------------------|
A|---------------------------------------------------------------------------|
F|-15-15-15-15-15-15-14-14-14-14-14-14-14-14-14-14---------------------------|
C|-x--x--x--x--x--x--x--x--x--x--x--x--x--x--x--x----------------------------|
G|-13-13-13-13-13-13-12-12-12-12-12-12-12-12-12-12---------------------------|
C|---------------------------------------------------------------------------|



D|---------------------------------------------------------------------------|
A|---------------------------------------------------------------------------|
F|-9--9--9--9--9--9--10-10-10-10-10-10-10-10-10-10---------------------------|
C|-x--x--x--x--x--x--x--x--x--x--x--x--x--x--x--x----------------------------|
G|-7--7--7--7--7--7--8--8--8--8--8--8--8--8--8--8----------------------------|
C|---------------------------------------------------------------------------|



D|---------------------------------------------------------------------------|
A|---------------------------------------------------------------------------|
F|-9--9--9--9--9--9--10-10-10-10-10-10-10-10-10-10---------------------------|
C|-x--x--x--x--x--x--x--x--x--x--x--x--x--x--x--x----------------------------|
G|-7--7--7--7--7--7--8--8--8--8--8--8--8--8--8--8----------------------------|
C|---------------------------------------------------------------------------|



D|---------------------------------------------------------------------------|
A|---------------------------------------------------------------------------|
F|-10-10-10-10-10-10-9--9--9--9--9--9--9--9--9--9----------------------------|
C|-x--x--x--x--x--x--x--x--x--x--x--x--x--x--x--x----------------------------|
G|-8--8--8--8--8--8--7--7--7--7--7--7--7--7--7--7----------------------------|
C|---------------------------------------------------------------------------|



D|---------------------------------------------------------------------------|
A|---------------------------------------------------------------------------|
F|-15-15-15-15-15-15-14-14-14-14-14-14-14-14-14-14---------------------------|
C|-x--x--x--x--x--x--x--x--x--x--x--x--x--x--x--x----------------------------|
G|-13-13-13-13-13-13-12-12-12-12-12-12-12-12-12-12---------------------------|
C|---------------------------------------------------------------------------|



D|---------------------------------------------------------------------------|
A|---------------------------------------------------------------------------|
F|-9--9--9--9--9--9--10-10-10-10-10-10-10-10-10-10---------------------------|
C|-x--x--x--x--x--x--x--x--x--x--x--x--x--x--x--x----------------------------|
G|-7--7--7--7--7--7--8--8--8--8--8--8--8--8--8--8----------------------------|
C|---------------------------------------------------------------------------|



D|---------------------------------------------------------------------------|
A|---------------------------------------------------------------------------|
F|-9--9--9--9--9--9--10-10-10-10-10-10-10-10-10-10---------------------------|
C|-x--x--x--x--x--x--x--x--x--x--x--x--x--x--x--x----------------------------|
G|-7--7--7--7--7--7--8--8--8--8--8--8--8--8--8--8----------------------------|
C|---------------------------------------------------------------------------|



D|---------------------------------------------------------------------------|
A|---------------------------------------------------------------------------|
F|-10-10-10-10-10-10-9--9--9--9--9--9--9--9--9--9----------------------------|
C|-x--x--x--x--x--x--x--x--x--x--x--x--x--x--x--x----------------------------|
G|-8--8--8--8--8--8--7--7--7--7--7--7--7--7--7--7----------------------------|
C|---------------------------------------------------------------------------|


  PLAY WITH EMOTION!!!!!!!!!
D|---------------------------------------------------------------------------|
A|---------------------------------------------------------------------------|
F|-19-19-19-19-19-19-17-17-17-17-17-17-17-17-17-17---------------------------|
C|-x--x--x--x--x--x--x--x--x--x--x--x--x--x--x--x----------------------------|
G|-17-17-17-17-17-17-15-15-15-15-15-15-15-15-15-15---------------------------|
C|---------------------------------------------------------------------------|



D|---------------------------------------------------------------------------|
A|---------------------------------------------------------------------------|
F|-17-17-17-17-17-17-22-22-22-22-22-22-22-22-22-22---------------------------|
C|-x--x--x--x--x--x--x--x--x--x--x--x--x--x--x--x----------------------------|
G|-15-15-15-15-15-15-20-20-20-20-20-20-20-20-20-20---------------------------|
C|---------------------------------------------------------------------------|



D|---------------------------------------------------------------------------|
A|---------------------------------------------------------------------------|
F|-17-17-17-17-17-17-22-22-22-22-22-22-22-22-22-22---------------------------|
C|-x--x--x--x--x--x--x--x--x--x--x--x--x--x--x--x----------------------------|
G|-15-15-15-15-15-15-20-20-20-20-20-20-20-20-20-20---------------------------|
C|---------------------------------------------------------------------------|



D|---------------------------------------------------------------------------|
A|---------------------------------------------------------------------------|
F|-22-22-22-22-22-22-21-21-21-21-21-21-21-21-21-21---------------------------|
C|-x--x--x--x--x--x--x--x--x--x--x--x--x--x--x--x----------------------------|
G|-20-20-20-20-20-20-19-19-19-19-19-19-19-19-19-19---------------------------|
C|---------------------------------------------------------------------------|



D|---------------------------------------------------------------------------|
A|---------------------------------------------------------------------------|
F|-19-19-19-19-19-19-17-17-17-17-17-17-17-17-17-17---------------------------|
C|-x--x--x--x--x--x--x--x--x--x--x--x--x--x--x--x----------------------------|
G|-17-17-17-17-17-17-15-15-15-15-15-15-15-15-15-15---------------------------|
C|---------------------------------------------------------------------------|



D|---------------------------------------------------------------------------|
A|---------------------------------------------------------------------------|
F|-17-17-17-17-17-17-22-22-22-22-22-22-22-22-22-22---------------------------|
C|-x--x--x--x--x--x--x--x--x--x--x--x--x--x--x--x----------------------------|
G|-15-15-15-15-15-15-20-20-20-20-20-20-20-20-20-20---------------------------|
C|---------------------------------------------------------------------------|



D|---------------------------------------------------------------------------|
A|---------------------------------------------------------------------------|
F|-22-22-22-22-22-22-22-22-22-22-22-22-22-22-22-22---------------------------|
C|-x--x--x--x--x--x--x--x--x--x--x--x--x--x--x--x----------------------------|
G|-20-20-20-20-20-20-20-20-20-20-20-20-20-20-20-20---------------------------|
C|---------------------------------------------------------------------------|


  NOW TURN OFF YOUR DAMN ECHO
D|---------------------------------------------------------------------------|
A|---------------------------------------------------------------------------|
F|---------------------------------------------------------------------------|
C|-8---10---7-----\----------------------------------------------------------|
G|-8---10---8-----\----------------------------------------------------------|
C|-8---10---7-----\----------------------------------------------------------|


  TIME TO BREAK DOWN!!!!!
D|---------------------------------------------------------------------------|
A|---------------------------------------------------------------------------|
F|----------7~~~\---------------------3--------------------------------------|
C|----------7~~~\---------------------3--------------------------------------|
G|-00-000---0~~~----00-000-000--------1--------------------------------------|
C|-00-000-0-0~~~----00-000-000-2/3-00----------------------------------------|
   ** *** *         ** *** ***     ** 


D|---------------------------------------------------------------------------|
A|---------------------------------------------------------------------------|
F|----------7~~~\------------------------------------------------------------|
C|----------7~~~\---------------------1--------------------------------------|
G|-00-000---0~~~----00-000-000--------1--------------------------------------|
C|-00-000-0-0~~~----00-000-000-5/6-00-1--------------------------------------|
   ** *** *         ** *** ***     ** 


D|---------------------------------------------------------------------------|
A|---------------------------------------------------------------------------|
F|----------10~~\---------------------3--------------------------------------|
C|----------0~~~----------------------3--------------------------------------|
G|-00-000---8~~~\---00-000-000--------1--------------------------------------|
C|-00-000-0-0~~~----00-000-000-2/3-00----------------------------------------|
   ** *** *         ** *** ***     ** 

                                 all is silent.....
D|---------------------------------------------------------------------------|
A|---------------------------------------------------------------------------|
F|----------10~~\------------------------------------------------------------|
C|----------0~~~-----0-------------------------------------------------------|
G|-00-000---8~~~\----0-------------------------------------------------------|
C|-00-000-0-0~~~-----0-------------------------------------------------------|
   ** *** *

                                           BOOOOOM!!!!!
D|---------------------------------------------------------------------------|
A|-IT------------------------------------------------------------------------|
F|-----------STARTS----------------------------------------------------------|
C|--------------------------WITH---------------------------------------------|
G|-----------------------------------------OOONNNNNNNEEEEEEEEEE!!!!!!!!!!!!!-|
C|---------------------------------------------------------------------------|


  You may choose to repeat this throughout the rest of the song, or you can...
D|---------------------------------------------------------------------------|
A|---------------------------------------------------------------------------|
F|---------------------------------------------------------------------------|
C|-------h8----------12p810p8------------------------------------------------|
G|-0h8h12--h12p8h10p8--------12p810p8----------------------------------------|
C|---------------------------------------------------------------------------|


  .... play this to the end after the riff above is played 8 times
D|---------------------------------------------------------------------------|
A|---------------------------------------------------------------------------|
F|---------------------------------------------------------------------------|
C|--------h12------------15p1213p12------------------------------------------|
G|-0h12h15---h15p12h13p12----------15p1213p12--------------------------------|
C|---------------------------------------------------------------------------|


Keep playing the riffs until the song fades away, and I recomend singing along to it:

BREAK THE SILENCE! BREAK THIS SILENCE! BREAK THIS SILENCE! WE'RE ALL ALIIVE!!!!
BREAK THE SILENCE! BREAK THIS SILENCE! BREAK THIS SILENCE! WE'RE ALL ALIIVE!!!!
BREAK THE SILENCE! BREAK THIS SILENCE! BREAK THIS SILENCE! WE'RE ALL ALIIVE!!!!
BREAK THE SILENCE! BREAK THIS SILENCE! BREAK THIS SILENCE! we're all alive.....



THE END =)

THANK YOU THANK YOU I LOVE YOU ALL!


************************************
| *   palm-mute
| /   slide up
| \   slide down
| h   hammer-on
| p   pull-off
| ~   Let Ring
| +   harmonic
| x   Mute note
| b   Bend
| pb  Pre-bend
| br  Bend release
| pbr Pre-bend release
| brb Bend release bend

************************************
Tap to rate this tab
 
# A B C D E F G H I J K L M N O P Q R S T U V W X Y Z