Killswitch Engage - My Curse tab

Here's my tab of My Curse. Totally beast song.
Tuning: Drop C (CGCFAD)
Time Signature: 3/4


Intro (Clean Guitar)
e|------------------------------------------------------------------------------------|
B|-----------------------------------------------1-------------------1----------------|
G|------------3-------------------3----------3-----3--0----3----3-----3--0----3-------|
D|------3----------3-------3-----------3----------------------------------------------|
A|---1-----1------------1-----1-------------------------------------------------------|
E|------------------------------------------------------------------------------------|

e|-------------1----------------------0----1----------------1---------------------0----1--|
B|------1---------------------1---------------------1---------------------1---------------|
G|---------4--------4------------4---------------------4---------4-----------4------------|
D|----------------------------------------------------------------------------------------|
A|---0--------------------0---------------------0----------------------0------------------|
E|----------------------------------------------------------------------------------------|
(x2)

(Distortion Guitar)
e|------------------------------------------------------------------------------------|
B|-----------------------------------------------1-------------------1----------------|
G|------------3-------------------3----------3-----3--0----3----3-----3--0----3-------|
D|------3----------3-------3-----------3----------------------------------------------|
A|---1-----1------------1-----1-------------------------------------------------------|
E|------------------------------------------------------------------------------------|

e|-------------1----------------------0----1----------------1---------------------0----1--|
B|------1---------------------1---------------------1---------------------1---------------|
G|---------4--------4------------4---------------------4---------4-----------4------------|
D|----------------------------------------------------------------------------------------|
A|---0--------------------0---------------------0----------------------0------------------|
E|----------------------------------------------------------------------------------------|
(x2)

Riff (from the intro and verse)
e|------------------------------------------------------------------------------------|
B|------------------------------------------------------------------------------------|
G|------------------------------------------------------------------------------------|
D|----5---------3---------------------------------------------------------------------|
A|----5---------3---------------------------------------------5-----------------------|
E|--------0--0-----0--0--6--0--0--5--0--0--3p0--0--0--7-----7--6--5--0--3--5----------|

e|------------------------------------------------------------------------------------|
B|------------------------------------------------------------------------------------|
G|------------------------------------------------------------------------------------|
D|----5---------3---------------------------------------------------------------------|
A|----5---------3---------------------------------------------3-----------------------|
E|--------0--0-----0--0--6--0--0--5--0--0--3p0--0--0--5-----5--4--3--0--3~~-----------|
(x4)

Chorus
e|------------------------------------------------------------------------------------|
B|------------------------------------------------------------------------------------|
G|------------------------------------------------------------------------------------|
D|------------------------------------------------------------------------------------|
A|---0--0--0----0--0--0----0--0--0----0--0--0----7-------------------7----------------|
E|---0--0--0----0--0--0----0--0--0----0--0--0--------0--0--0--0--0-----0--0--0--0--0--|

e|--------------------------------------------------------------------------------------|
B|--------------------------------------------------------------------------------------|
G|-----------------------------------------------------------------------------1--0-----|
D|-----------------------------------------------------------------------0-----------3--|
A|---0--0--0----0--0--0----0--0--0----0--0--0--0----7------------0-----0----------------|
E|---0--0--0----0--0--0----0--0--0----0--0--0--0--------0--0--0-------------------------|

e|------------------------------------------------------------------------------------|
B|------------------------------------------------------------------------------------|
G|------------------------------------------------------------------------------------|
D|------------------------------------------------------------------------------------|
A|---0--0--0----0--0--0----0--0--0----0--0--0----7-------------------7----------------|
E|---0--0--0----0--0--0----0--0--0----0--0--0--------0--0--0--0--0-----0--0--0--0--0--|

e|------------------------------------------------------------------------------------------------|
B|------------------------------------------------------------------------------------------------|
G|-----------------------------------------------------------------------------1--0-----------1---|
D|-----------------------------------------------------------------------0--------------0--------0|
A|---0--0--0----0--0--0----0--0--0----0--0--0--0----7------------0-----0--------0-----0-----------|
E|---0--0--0----0--0--0----0--0--0----0--0--0--0--------0--0--0-----------------------------------|

e|------------------------------------------------------------------------------------|
B|-----------------------------------------------1-------------------1----------------|
G|------------3-------------------3----------3-----3--0----3----3-----3--0----3-------|
D|------3----------3-------3-----------3----------------------------------------------|
A|---1-----1------------1-----1-------------------------------------------------------|
E|------------------------------------------------------------------------------------|

e|-------------1----------------------0----1----------------1---------------------0----1--|
B|------1---------------------1---------------------1---------------------1---------------|
G|---------4--------4------------4---------------------4---------4-----------4------------|
D|----------------------------------------------------------------------------------------|
A|---0--------------------0---------------------0----------------------0------------------|
E|----------------------------------------------------------------------------------------|
(x2)

Verse 2
e|------------------------------------------------------------------------------------|
B|------------------------------------------------------------------------------------|
G|------------------------------------------------------------------------------------|
D|----5---------3---------------------------------------------------------------------|
A|----5---------3---------------------------------------------5-----------------------|
E|--------0--0-----0--0--6--0--0--5--0--0--3p0--0--0--7-----7--6--5--0--3--5----------|

e|------------------------------------------------------------------------------------|
B|------------------------------------------------------------------------------------|
G|------------------------------------------------------------------------------------|
D|----5---------3---------------------------------------------------------------------|
A|----5---------3---------------------------------------------3-----------------------|
E|--------0--0-----0--0--6--0--0--5--0--0--3p0--0--0--5-----5--4--3--0--3~~-----------|
(x2)

Chorus
e|------------------------------------------------------------------------------------|
B|------------------------------------------------------------------------------------|
G|------------------------------------------------------------------------------------|
D|------------------------------------------------------------------------------------|
A|---0--0--0----0--0--0----0--0--0----0--0--0----7-------------------7----------------|
E|---0--0--0----0--0--0----0--0--0----0--0--0--------0--0--0--0--0-----0--0--0--0--0--|

e|--------------------------------------------------------------------------------------|
B|--------------------------------------------------------------------------------------|
G|-----------------------------------------------------------------------------1--0-----|
D|-----------------------------------------------------------------------0-----------3--|
A|---0--0--0----0--0--0----0--0--0----0--0--0--0----7------------0-----0----------------|
E|---0--0--0----0--0--0----0--0--0----0--0--0--0--------0--0--0-------------------------|

e|------------------------------------------------------------------------------------|
B|------------------------------------------------------------------------------------|
G|------------------------------------------------------------------------------------|
D|------------------------------------------------------------------------------------|
A|---0--0--0----0--0--0----0--0--0----0--0--0----7-------------------7----------------|
E|---0--0--0----0--0--0----0--0--0----0--0--0--------0--0--0--0--0-----0--0--0--0--0--|

e|------------------------------------------------------------------------------------------------|
B|------------------------------------------------------------------------------------------------|
G|-----------------------------------------------------------------------------1--0-----------1---|
D|-----------------------------------------------------------------------0--------------0--------0|
A|---0--0--0----0--0--0----0--0--0----0--0--0--0----7------------0-----0--------0-----0-----------|
E|---0--0--0----0--0--0----0--0--0----0--0--0--0--------0--0--0-----------------------------------|

e|------------------------------------------------------------------------------------|
B|-----------------------------------------------1-------------------1----------------|
G|------------3-------------------3----------3-----3--0----3----3-----3--0----3-------|
D|------3----------3-------3-----------3----------------------------------------------|
A|---1-----1------------1-----1-------------------------------------------------------|
E|------------------------------------------------------------------------------------|

e|-------------1----------------------0----1----------------1---------------------0----1--|
B|------1---------------------1---------------------1---------------------1---------------|
G|---------4--------4------------4---------------------4---------4-----------4------------|
D|----------------------------------------------------------------------------------------|
A|---0--------------------0---------------------0----------------------0------------------|
E|----------------------------------------------------------------------------------------|
(x2)

Bridge
e|---------------------------------------------------------------------------------|
B|---------------------------------------------------------------------------------|
G|---------------------------------------------------------------------------------|
D|----------------------------------------0----0--0--0--0---0----0--0--0--0--------|
A|--1----1--1--1--1---1----1--1--1--1----------------------------------------------|
E|---------------------------------------------------------------------------------|

e|----------------------------------------------------------------------------------|
B|----------------------------------------------------------------------------------|
G|----------------------------------------------------------------------------------|
D|--0----0--0--0--0---0----0--0--0--0-----------------------------------------------|
A|-----------------------------------------0----0--0--0--0---0----0--0--0--0--------|
E|----------------------------------------------------------------------------------|

e|----------------------------------------------------------------------------------|
B|----------------------------------------------------------------------------------|
G|----------------------------------------------------------------------------------|
D|----------------------------------------0----0--0--0--0---0----0--0--0--0--0------|
A|--1----1--1--1--1---1----1--1--1--1----------------------------------------0------|
E|-------------------------------------------------------------------------------0--|

e|----------------------------------------------------------------------------------|
B|----------------------------------------------------------------------------------|
G|----------------------------------------000000000000------------------------------|
D|--333333333333--3-------------------000000000000--3-------------------------------|
A|--111111111111-----1--5----------------------------------1--5---------------------|
E|------------------------------3--0--0-------------------------------3--0--0-------|

e|---------------------------------------------------------------------------------|
B|---------------------------------------------------------------------------------|
G|---------------------------------------------------------------------------------|
D|--------------------3-------------------------------------3---------3------------|
A|--000000000000-----1--5-------------000000000000-----1--5------1--5--------------|
E|--000000000000------------3--0--0---000000000000---------------------------------|
(x2)

e|----------------------------------------------------------------|
B|----------------------------------------------------------------|
G|--3----3----3----3--3--3--3---0----3----3----3--3--3--3---------|
D|--3---------3----3--3--3--3---0----------0----0--0--0--3--------|
A|--1---------1----1--1--1--1--------------0----0--0--0--0--------|
E|----------------------------------------------------------------|

e|----------------------------------------------------------------|
B|----------------------------------------------------------------|
G|----------------------------------------------------------------|
D|--0---------0----0--0--0--0---0----------0----0--0--0--0--------|
A|--0----0----0----0--0--0--0---0----0----0----0--0--0--0---------|
E|--0----0----0----0--0--0--0---0----0----0----0--0--0--0---------|
(x2)

Outro
e|---------------------------------------------|
B|---------------------------------------------|
G|---------------------------------------------|
D|--3------------------3-----------------------|
A|-----1--5---------------1--5-----------------|
E|------------3--0--0------------3--0--0-------|
(x7)
e|-------------------------------------------------------------------------------------|
B|-------------------------------------------------------------------------------------|
G|-------------------------------------------------------------------------------------|
D|--3--------3---------3---------3--------3---------3---------3--------3---------------|
A|-----1--5-----1--5------1--5-----1--5-----1--5------1--5-----1--5-----1--5-----------|
E|-------------------------------------------------------------------------------------|
(x8)
Tap to rate this tab
 
# A B C D E F G H I J K L M N O P Q R S T U V W X Y Z