Song name
# A B C D E F G H I J K L M N O P Q R S T U V W X Y Z

Killswitch Engage - Life To Lifeless tab

album: alive or just breathing
tabber: dicer4
e-mail: dicer4@msn.com

credit for the bridge goes to my main man Falloftroy

| /  slide up
|   slide down
| h  hammer-on
| p  pull-off
| ~  vibrato
| *  harmonic
| .  Mute note

  intro gtr.1
d|--------------------------------------------------|
A|--------------------------------------------------|
F|--------------------------------------------------|
C|--------------------------------------------------|
G|-0-0-0-0--0-0-0-0-0-0--0-0-0-0-0-0----------------|
C|-0-0-0-0--0-0-0-0-0-0--0-0-0-0-0-0----------------|
 pm. . . .  . . . . . .  . . . . . .

intro gtr.2
d|------------------------------------------------------|
A|------------------------------------------------------|
F|------------------------------------------------------|
C|---pick-slide--3/5--5/6--0----------------------------|
G|-/-x-x-x-x-/---3/5--5/6--0----------------------------|
C|-/-x-x-x-x-/------------------------------------------|

verse both gtr.
d|----------------------------------------------------|
A|----------------------------------------------------|
F|----------------------------------------------------|
C|------------------7---------------------------------|
G|--3-5-00-5-6-00-6-5-00000000------------------------|
C|--3-5-00-5-6-00-6---00000000------------------------|
 pm     ..     ..     ........

choures both guitar's
d|-----------------------------------------------10*10*10*10*--------------|
A|-----------------------------------------------10*10*10*10*--------------|
F|-----------------------------------------------10*10*10*10*--------------|
C|--9/10-9-------5-5----5-5-5-----9/10-9-----------------------------------|
G|--7/8--7----00-3-3-00-3-3-3---0-7/8--7-00-0-0-00-------------------------|
C|------------00-----00---------0--------00-0-0-00-------------------------|
pm            ..     ..         .        ..     ..

bridge both gtr. (first four times)
d|-------------------------------------------------------------|
A|-------------------------------------------------------------|
F|-------------------------------------------------------------|
C|-------------------------------------------3--3/6------------|
G|-5h8--0h5-------------------5h8--0h5-------3--3/6------------|
C|----------5h8--3h5--000000------------5h8--------------------|
pm                    ......
   (next four times)
d|--------------------------------------------------|
A|--------------------------------------------------|
F|--------------------------------------------------|
C|------------------------------------------3--3/6--|
G|-5h8--0h5------------------5h8--0h5-------3--3/6--|
C|----------5h8-3h5--------------------5h8----------|

break down gtr.1

d|--------------------------------------------------|
A|--------------------------------------------------|
F|--------------------------------------------------|
C|-3/5--5/6--0--------------------------------------|
G|-3/5--5/6--0--------------------------------------|
C|--------------------------------------------------|

   gtr.2
d|--------------------------------------------------|
A|--------------------------------------------------|
F|--------------------------------------------------|
C|--------------------------------------------------|
G|-0-0-0-0-0-0-0-0-0-0-0-0--------------------------|
C|-0-0-0-0-0-0-0-0-0-0-0-0--------------------------|
pm . . . . . . . . . . . .

play the bridge four times for the outro and gtr.2 plays this:
d|------------------------------------------------------|
A|------------------------------------------------------|
F|------------------------------------------------------|
C|-77777777777---1010101010101010--12121212121212121212-|
G|-xxxxxxxxxxx---xxxxxxxxxxxxxxxx--xxxxxxxxxxxxxxxxxxxx-|
C|-55555555555---8888888888888888--14141414141414141414-|



LYRICS:

humanity cover me
with the ashes of rememberance,
i will learn from thois pain

there is no darkness without light to teach us of our selves

life to lifeless, to eternity
life to lifeless, the cycle repeats

death unfolds itself painfully to unmask how fragile we are
death unfolds itself painfully, teacher of sanity
Tap to rate this tab
# A B C D E F G H I J K L M N O P Q R S T U V W X Y Z