Song name
# A B C D E F G H I J K L M N O P Q R S T U V W X Y Z

Killswitch Engage - Fixation On The Darkness tab

Help us improve GuitareTab! Take a short survey!
Artist: Killswitch Engage
Album: The End of Heartache
Tuning: Drop C

Key:
*= Pinch Harmonic
\/= Slide up/Down
h= Hammer-on
p= Pull-off
.= Palm mute

Intro                                         hp
D|-----------------------------------------------------------------------|
A|-----------------------------------------------------------------------|
F|-----------------------------------------------------------------------|
C|12\--------------------------------------------------------------------|
G|12\-5--35--5--5-36--6--3h6p3p0--5--35--5--5-36--3h6p3p0-3--------------|
C|12\--00--00-00-0--00-00----------00--00-00-0--00-------5---------------|
       ..  .. .. .  .. ..          .. *.. .. .  ..

D|-------------------------------------------------------------------|
A|-------------------------------------------------------------------|
F|-------------------------------------------------------------------|
C|-------------------------------------------------------------------|
G|5--35--5--5-36--6--3h6p3p0--5--35--5--5-36--3h6p3p0-3--------------|
C|-00--00-00-0--00-00----------00--00-00-0--00-------5---------------|
   ..  .. .. .  .. ..          .. *.. .. .  ..

D|-------------------------------------------------------------------|
A|-------------------------------------------------------------------|
F|-------------------------------------------------------------------|
C|-------------------------------------------------------------------|
G|5--35--5--5-36--6--3h6p3p0--5--35--5--5-36--3h6p3p0-3--------------|
C|-00--00-00-0--00-00----------00--00-00-0--00-------5---------------|
   ..  .. .. .  .. ..          .. *.. .. .  ..


Verse 1
D|---------------------------------------------------------------|
A|---------------------------------------------------------------|
F|---------------------------------------------------------------|
C|---------------3-3-3-----------------------3-3-3---------------|
G|0----0---1---0-1-0-1--------0----0---1---0-1-0-1-1/4-4---------|
C|0-00-0-0-1-0-0-------3/6-6--0-00-0-0-1-0-0---------------------|
    ..   .   .             *    ..   .   .             *

D|---------------------------------------------------------------|
A|---------------------------------------------------------------|
F|---------------------------------------------------------------|
C|---------------3-3-3-----------------------3-3-3---------------|
G|0----0---1---0-1-0-1--------0----0---1---0-1-0-1-1/4-4---------|
C|0-00-0-0-1-0-0-------3/6-6--0-00-0-0-1-0-0---------------------|
    ..   .   .             *    ..   .   .             *

Post-Verse
D|------------------------------------------------------|
A|------------------------------------------------------|
F|------------------------------------------------------|
C|------------------------------------------------------|
G|------------------------------------------------------|
C|00-000000-00-56-00-000000-00-56-----------------------|
  .. ...... ..    .. ...... ..

D|-------------------------------------------------------------------|
A|-------------------------------------------------------------------|
F|-------------------------------------------------------------------|
C|-------------------------------------------------------------------|
G|5--35--5--5-36--6--3h6p3p0--5--35--5--5-36--3h6p3p0-3--------------|
C|-00--00-00-0--00-00----------00--00-00-0--00-------5---------------|
   ..  .. .. .  .. ..          .. *.. .. .  ..


Verse 2
D|---------------------------------------------------------------|
A|---------------------------------------------------------------|
F|---------------------------------------------------------------|
C|---------------3-3-3-----------------------3-3-3---------------|
G|0----0---1---0-1-0-1--------0----0---1---0-1-0-1-1/4-4---------|
C|0-00-0-0-1-0-0-------3/6-6--0-00-0-0-1-0-0---------------------|
    ..   .   .             *    ..   .   .             *

D|---------------------------------------------------------------|
A|---------------------------------------------------------------|
F|---------------------------------------------------------------|
C|---------------3-3-3-----------------------3-3-3---------------|
G|0----0---1---0-1-0-1--------0----0---1---0-1-0-1-1/4-4---------|
C|0-00-0-0-1-0-0-------3/6-6--0-00-0-0-1-0-0---------------------|
    ..   .   .             *    ..   .   .             *


   h p    Chorus
D|--------|-------------------------------------------------|
A|--------|---3----3-----3---3-----3----3----3-----3--------|
F|--------|-----0----0---------0-----0----0----0-----0------|
C|3-4-3---|-------------------------------------------------|
G|-----5p0|------------3----3--------------------3----------|
C|--------|-2-----2---------------0----0----0---------------|

D|-------------------------------------------------|
A|---3----3-----3---3-----3----3----3-----3--------|
F|-----0----0---------0-----0----0----0-----0------|
C|-------------------------------------------------|
G|------------3----3--------------------3----------|
C|-2-----2---------------0----0----0---------------|


D|-------------------------------------------------|
A|---3----3-----3---3-----3----3----3-----3--------|
F|-----0----0---------0-----0----0----0-----0------|
C|-------------------------------------------------|
G|------------3----3--------------------3----------|
C|-2-----2---------------0----0----0---------------|


D|-------------------------------------------------|
A|---3----3-----3---3-----3----3----3-----3--------|
F|-----0----0---------0-----0----0----0-----0------|
C|-------------------------------------------------|
G|------------3----3--------------------3----------|
C|-2-----2---------------0----0----0---------------|

Verse 3
D|-------------------------------------------------------------|
A|-------------------------------------------------------------|
F|-----------------------------------------------------7-8-7---|
C|--------7777--5555--8888-------------------7777--3-5---------|
G|----5555----------66-------34----1-----5555------1-3-5/6\5---|
C|0000--------66----------00-34-00-1-0000--------------------3-|
  ......      ..          ..    ..   ........                *


D|-------------------------------------------------------------|
A|-------------------------------------------------------------|
F|-----------------------------------------------------7-8-7---|
C|--------7777--5555--8888-------------------7777--3-5---------|
G|----5555----------66-------34----1-----5555------1-3-5/6\5---|
C|0000--------66----------00-34-00-1-0000--------------------3-|
  ......      ..          ..    ..   ........                *

D|-------------------------------------------------------------|
A|-------------------------------------------------------------|
F|-----------------------------------------------------7-8-7---|
C|--------7777--5555--8888-------------------7777--3-5---------|
G|----5555----------66-------34----1-----5555------1-3-5/6\5---|
C|0000--------66----------00-34-00-1-0000--------------------3-|
  ......      ..          ..    ..   ........                *

D|-------------------------------------------------------------|
A|-------------------------------------------------------------|
F|-----------------------------------------------------7-8-7---|
C|--------7777--5555--8888-------------------7777--3-5---------|
G|----5555----------66-------34----1-----5555------1-3-5/6\5---|
C|0000--------66----------00-34-00-1-0000--------------------3-|
  ......      ..          ..    ..   ........                *


Chorus 2
   h p
D|--------|-------------------------------------------------|
A|--------|---3----3-----3---3-----3----3----3-----3--------|
F|--------|-----0----0---------0-----0----0----0-----0------|
C|3-4-3---|-------------------------------------------------|
G|-----50-|------------3----3--------------------3----------|
C|--------|-2-----2---------------0----0----0---------------|

D|-------------------------------------------------|
A|---3----3-----3---3-----3----3----3-----3--------|
F|-----0----0---------0-----0----0----0-----0------|
C|-------------------------------------------------|
G|------------3----3--------------------3----------|
C|-2-----2---------------0----0----0---------------|


D|-------------------------------------------------|
A|---3----3-----3---3-----3----3----3-----3--------|
F|-----0----0---------0-----0----0----0-----0------|
C|-------------------------------------------------|
G|------------3----3--------------------3----------|
C|-2-----2---------------0----0----0---------------|


D|-------------------------------------------------|
A|---3----3-----3---3-----3----3----3-----3--------|
F|-----0----0---------0-----0----0----0-----0------|
C|-------------------------------------------------|
G|------------3----3--------------------3----------|
C|-2-----2---------------0----0----0---------------|


Bridge
D|----------------------------|
A|----------------------------|
F|----------------------------|
C|0----78------0----78--------|
G|0----56----1-0----56----1---|
C|0-00----00-1-0-00----00-1---|
    ..    ..     ..    ..

Outro
D|--------------------------------------------------------------|
A|--------------------------------------------------------------|
F|--------------------------------------------------------------|
C|0-4-3-0-6-3-0-4-3-0-1-3-0-4-3-0-6-3-0-4-3-0-1-3----78----1----|
G|0-4-3-0-6-3-0-4-3-0-1-3-0-4-3-0-6-3-0-4-3-0-1-3----56----1----|
C|0-4-3-0-6-3-0-4-3-0-1-3-0-4-3-0-6-3-0-4-3-0-1-3-00----00-1----|
  . . . . . . . . . . . . . . . . . . . . . . . . ..    ..


D|--------------------------------------------------------------|
A|--------------------------------------------------------------|
F|--------------------------------------------------------------|
C|0-4-3-0-6-3-0-4-3-0-1-3-0-4-3-0-6-3-0-4-3-0-1-3----78----1----|
G|0-4-3-0-6-3-0-4-3-0-1-3-0-4-3-0-6-3-0-4-3-0-1-3----56----1----|
C|0-4-3-0-6-3-0-4-3-0-1-3-0-4-3-0-6-3-0-4-3-0-1-3-00----00-1----|
  . . . . . . . . . . . . . . . . . . . . . . . . ..    ..


D|--------------------------------------------------------------|
A|--------------------------------------------------------------|
F|--------------------------------------------------------------|
C|0-4-3-0-6-3-0-4-3-0-1-3-0-4-3-0-6-3-0-4-3-0-1-3----78----1----|
G|0-4-3-0-6-3-0-4-3-0-1-3-0-4-3-0-6-3-0-4-3-0-1-3----56----1----|
C|0-4-3-0-6-3-0-4-3-0-1-3-0-4-3-0-6-3-0-4-3-0-1-3-00----00-1----|
  . . . . . . . . . . . . . . . . . . . . . . . . ..    ..


D|--------------------------------------------------------------|
A|--------------------------------------------------------------|
F|--------------------------------------------------------------|
C|0-4-3-0-6-3-0-4-3-0-1-3-0-4-3-0-6-3-0-4-3-0-1-3----78----1----|
G|0-4-3-0-6-3-0-4-3-0-1-3-0-4-3-0-6-3-0-4-3-0-1-3----56----1----|
C|0-4-3-0-6-3-0-4-3-0-1-3-0-4-3-0-6-3-0-4-3-0-1-3-00----00-1----|
  . . . . . . . . . . . . . . . . . . . . . . . . ..    ..

This is the way my band plays the song.  I don't know about any of the 2nd guitar parts, 
my band has only one guitar player.  This tab should be 100% correct.  One note is to 
to figure out exactly where to do the pinch harmonics.
Related for Fixation On The Darkness tab