Guitaretab - guitar tabs
Song name
# A B C D E F G H I J K L M N O P Q R S T U V W X Y Z

Killswitch Engage - Just Barely Breathing tab

Killswitch Engage - Just Barely Breathing

I havenít seen a single correct tab of this song anywhere... none of them are even
so I did it for you :) I only worried about the heavy parts from 1:20 onwards.

Tuning: Drop C

Also, check out some of my sites.
www.pre-fix.tk
www.myspace.com/juzcook
and my video cover of this song - http://youtube.com/watch?v=nVKyx-H8Ozk

Main Riff / Verse
D|--------------------------------------|
A|--------------------------------------|
F|--------------------------------------|
C|--------------------------------------|
G|-5--------5--------5---6p5-----5---3--|
C|---0-0-0----0-0-0----0-----0-0---3--3-|

D|----------------------------------------|
A|----------------------------------------|
F|----------------------------------------|
C|--------------------------5s4---4s3-----|
G|-5--------5---------2s3---3s2---2s1-----|
C|---0-0-0----0-0-0---2s3-0-----0-----3-2-|

Verse Part 2 / Pre Chorus
D|-------------------------------------------------|
A|-------------------------------------------------|
F|-------------------------------------------------|
C|-5s4-------------4s3-------------5s4-----6s5-----|
G|-3s2-----2-3-2-0-2s1-----2-3-2-0-3s2-----4s3-----|
C|-----0-0-2-3-2-0-----0-0-2-3-2-0-----0-0-----0-0-|
[ Tab from: http://www.guitaretab.com/k/killswitch-engage/31818.html ]
D|-------------------------------------------------|
A|-------------------------------------------------|
F|-------------------------------------------------|
C|-5s4-------------4s3-------------5s4-----6-------|
G|-3s2-----2-3-2-0-2s1-----2-3-2-0-3s2-----4-------|
C|-----0-0-2-3-2-0-----0-0-2-3-2-0-----0-0---------|

Chorus
D|----------------------------------|---------------------------------|
A|----------------------------------|---------------------------------|
F|----------------------------------|---------------------------------|
C|-------------3-------5------------|-------------3-------5---5s7-----|
G|-5-------5-----5-0-3---3-s8-5---5-|-5-------5-----5-0-3---3-----5---|
C|---3-0-3---0------------------8---|---3-0-3---0-------------------8-|

D|----------------------------------|-----------------------------------|
A|----------------------------------|-----------------------------------|
F|----------------------------------|-----------------------------------|
C|-------------3-------5------------|-------------3-------5---7h8p7-----|
G|-5-------5-----5-0-3---3-s8-5---5-|-5-------5-----5-0-3---3-------8---|
C|---3-0-3---0------------------8---|---3-0-3---0---------------------8-|

Bridge (Rhythm is clsoe to this)
D|---------------------------------------|
A|---------------------------------------|
F|---------------------------------------|
C|-3------------------3------------------|
G|-1------------------1------------------|
C|----0--0--0---0-0-0----0--0--0---0-0-0-|

D|-------------------|
A|-------------------|
F|-------------------|
C|---7-7-5-5-3-3-5-5-|
G|-------------------|
C|-0-----------------|
Not sure of the harmony of this one
Related for Just Barely Breathing tab