Song name
# A B C D E F G H I J K L M N O P Q R S T U V W X Y Z

Killswitch Engage - Element Of One tab

Tuning: Drop C (C G C F A D)


Intro (Acoustic Guitar)
|------------------------------------------|
|------------------------------------------|
|-5----5---5-5-5-5-5-5-5-5-5-5-5-5-5-5-5-5-|
|-3----3---3-3-3-3-3-3-3-3-3-3-3-3-3-3-3-3-|
|-1----------1---------1---------1---------|
|------------------------------------------|

|-----------------------------------------|
|-----------------------------------------|
|-5-5-5-5-5-5-5-5-5-5-5-5-5-5-5-5-5-5-5-5-|
|-3-3-3-3-3-3-3-3-3-3-3-3-3-3-3-3-3-3-3-3-|
|-0---------0---------0---------0---------|
|-0---------0---------0---------0---------|

|-----------------------------------------|
|-----------------------------------------|
|-5-5-5-5-5-5-5-5-5-5-5-5-5-5-5-5-5-5-5-5-|
|-3-3-3-3-3-3-3-3-3-3-3-3-3-3-3-3-3-3-3-3-|
|-1---------1---------1---------1---------|
|-----------------------------------------|

|-----------------------------------------|
|-----------------------------------------|
|-5-5-5-5-5-5-5-5-5-5-5-5-5-5-5-5-5-5-5-5-|
|-3-3-3-3-3-3-3-3-3-3-3-3-3-3-3-3-3-3-3-3-|
|-0---------0---------0---------0---------|
|-0---------0---------0---------0---------|


Intro Chorus (Repeat X4)
Guitar 1
|----------------------------------------------------------|
|----------------------------------------------------------|
|----------------------------------------------------------|
|-3----------------3-----------3--3-----3-----3--3---5---7-|
|-1----------------1-----------1--1-----1-----1--1---3---5-|
|----------------------------------------------------------|
|         
Guitar 2
|------------------------------------------------------------|
|------------------------------------------------------------|
|------------------------------------------------------------|
|10-10-10-10-10-10-7-7-7-7-7-7-------------------7-7-7-7-7-7-|
|------------------------------10-10-10-10-10-10-------------|
|------------------------------------------------------------|


Guitar 1 (..contin.)
|----------------------------------------------------------|
|----------------------------------------------------------|
|----------------------------------------------------------|
|------------------------------------------------7---5---3-|
|-0----------------0-----------0--0-----0-----0--5---3---1-|
|-0----------------0-----------0--0-----0-----0------------|
|
Guitar 2 (..contin.)
|------------------------------------------------------------|
|------------------------------------------------------------|
|------------------------------------------------------------|
|10-10-10-10-10-10-7-7-7-7-7-7-------------------7-7-7-7-7-7-|
|------------------------------10-10-10-10-10-10-------------|
|------------------------------------------------------------|
|
Guitar 3 (very faint when the words come in)
|------------------------------------------------------------------|
|------------------------------------------------------------------|
|-9/10-10-10-------9/10-10-10---9/10-10-10----10/14-14-14-14-14-14-|
|------------------------------------------------------------------|
|-7/-8--8--8-------7/-8--8--8---7/-8--8--8-----8/12-12-12-12-12-12-|
|------------------------------------------------------------------|


Riff 1 (Repeat X2)
Guitars 1 & 2
|-------------------------------------------------|
|-------------------------------------------------|
|-------------------------------------------------|
|-------------------------------------------------|
|-------5-----------5-----------5-----8-----5-----|
|-0-3-7---8-7-0-3-7---8-7-0-3-7---8-7---8-8---8-7-|
|
Guitars 1 & 2
|-------------------------------------------------|
|-------------------------------------------------|
|-------------------------------------------------|
|-------------------------------------------------|
|-------5-----------5-----------3-----------1-----|
|-0-3-7---8-7-0-3-7---8-7-3-3-3---3-3-1-1-1---1-1-|
  

Riff 2 (Repeat X2)
Guitars 1 & 2
|----------------------------------|
|----------------------------------|
|----------------------------------|
|---3---2---5---7-------10---------|
|---1---0---3---5--------8---------|
|-0---0---0---0---0-0-0----0-0-0-0-|
|
Guitars 1 & 2
|--------------------------------|
|--------------------------------|
|--------------------------------|
|---3---2---5---7------10-10\5-5-|
|---1---0---3---5-------8--8\3-3-|
|-0---0---0---0---0-0-0----------|

Play Riff 1 X2

Riff 2 - Right Before Chorus
Guitar 2 (Plays this under Riff 2 [above])
|-------------------------|
|-------------------------|
|-10-10-10-10-10-10-10-10-|
|-------------------------|(Play twice)
|--8--8--8--8--8--8--8--8-|
|-------------------------|
|
|-------------------------|
|-------------------------|
|-14-14-14-14-14-14-14-14-|
|-------------------------|(Play twice)
|-12-12-12-12-12-12-12-12-|
|-------------------------|

Play Chorus X4

Acoustic Part (Repeat X2)
|-----------------------------------------------------|
|-----------------------------------------------------|
|---------10-----------10-----------10-----------10---|
|-8---8--------8---8--------8---8--------8---8--------|
|---6---6----6---6---6----6---6---6----6---6---6----6-|
|-----------------------------------------------------|

|-----------------------------------------------------|
|-----------------------------------------------------|
|---------7-----------7-----------7-----------7-------|
|-5---5-------5---5-------5---5-------5---5-----------|
|---5---5---5---5---5---5---5---5---5---5---5---5-----|
|-----------------------------------------------------|


Riff 3 (Repeat X2)
Guitars 1 & 2
|-------------------------------------------------|
|-------------------------------------------------|
|-------------------------------------------------|
|-3-----------3-----------3-----------3-----------|
|---5-0-5-0-5---5-0-5-0-5---5-0-5-0-5---5-0-5-0-5-|
|-------------------------------------------------|
 
Guitars 1 & 2
|-----------------------------------------------------|
|-----------------------------------------------------|
|-----------------------------------------------------|
|-7-----10-----7-----10-----7------7------5-----5-----|
|---0-0----0-0---0-0----0-0---------------------------|
|-----------------------------10-8---10-8---8-7---8-7-|
 

Bridge
Guitar 1
|---------------------------------|
|---------------------------------|
|---------------------------------|
|---------------------------------|
|1-1-1-1-1-1-1-1-1-1-1-1-1-1-1-3-3|
|1-1-1-1-1-1-1-1-1-1-1-1-1-1-1-3-3|
|
Guitar 2
|---------------------------------|
|---------------------------------|
|---------5-7----5-7----5-7-------|
|---------7-8----7-8----7-8-------|
|---------------------------------|
|---------------------------------|


Guitar 1
|---------------------------------|
|---------------------------------|
|---------------------------------|
|---------------------------------|
|5-5-5-5-5-5-5-5-5-5-5-5-5-5-5-3-3|
|5-5-5-5-5-5-5-5-5-5-5-5-5-5-5-3-3|
|
Guitar 2
|---------------------------------|
|---------------------------------|
|---------5-7----5-7----5-7-------|
|---------7-8----7-8----7-8-------|
|---------------------------------|
|---------------------------------|


Guitar 1
|---------------------------------|
|---------------------------------|
|---------------------------------|
|---------------------------------|
|1-1-1-1-1-1-1-1-1-1-1-1-1-1-1-3-3|
|1-1-1-1-1-1-1-1-1-1-1-1-1-1-1-3-3|
|
Guitar 2
|---------------------------------|
|---------------------------------|
|---------5-7----5-7----5-7-------|
|---------7-8----7-8----7-8-------|
|---------------------------------|
|---------------------------------|


Guitar 1
|-------------------------------------------------|
|-------------------------------------------------|
|-------------------------------------------------|
|-------------------------------------------------|
|5-5-5-5-5-5-5-5-5-5-5-5-5-5-5-5-5-5-5-3-3-3-3-3-3|
|5-5-5-5-5-5-5-5-5-5-5-5-5-5-5-5-5-5-5-3-3-3-3-3-3|
|
Guitar 2
|---------------------------------|
|---------------------------------|
|---------5-7----5-7----5-7-------|
|---------7-8----7-8----7-8-------|
|---------------------------------|
|---------------------------------|

Chorus Riff

Outro
Guitar 1
|----------------------------------------|
|----------------------------------------|
|----------------------------------------|
|1-----------1-----------1-----------1---|
|1-----------1-----------1-----------1---|
|1-----------1-----------1-----------1---|
|
Guitar 2
|----------------------------------------|
|----------------------------------------|
|10---------10----------10----------10---|
|-8----------8-----------8-----------8---|
|-6----------6-----------6-----------6---|
|----------------------------------------|
Tap to rate this tab
# A B C D E F G H I J K L M N O P Q R S T U V W X Y Z