Song name
# A B C D E F G H I J K L M N O P Q R S T U V W X Y Z

Killswitch Engage - In Due Time tab

KILLSWITCH ENGAGE

IN DUE TIME INTRO

CGCFAD

TABBED BY andherembrace


***I will continue to update this when some better live versions become available 
so i can see what exactly they are doing during the chorus

this tab will get you to 0:45

I also have the solo done if anyone is interested

http://tabs.ultimate-guitar.com/k/killswitch_engage/in_due_time_solo_tab.htm




------------------------------------------------------------------------|
------------------------------------------------------------------------|
------------------------------------------------------------------------|
------------------------------------------------------------------------|
----------------^--------^----------^--------^----------^--------^------|
0-/19\--0--00-10-12-00-10-12-0000-10-13-00-10-13-0000-13-10-00-10-13-12~|
           **       **       ****       **       ****       **

--------------------------------------------|
--------------------------------------------|
----------------------------1211--11-8---7--|
-----------------------------X-X---X-X---X--|
------^--------^------------10\9---9\6---5--|
-00-10-12-00-10-12-0000-0--0-----0-----0----|
 **       **       ****    *     *     * ~

-----------------------------------------------------------------|
-----------------------------------------------------------------|
-----------------------------------------------------------------|
-----------------------------------------------------------------|
---------^--------^----------^--------^----------^--------^------|
-0--00-10-12-00-10-12-0000-10-13-00-10-13-0000-13-10-00-10-13-12~|
    **       **       ****       **       ****       **

-----------------------------------------|
-----------------------------------------|
-----------------------------------------|
---------------------------------4-3-----|
------^--------^-----------0-1-3-2\1-3-1-|
-00-10-12-00-10-12-0000-0--0-1-3-----3-1-|
 **       **       ****    * * *     * *              




0:12

L
-----------------------------------------------------------------|
-----------------------------------------------------------------|
-----------------------------------------------------------------|
-----------------------------------------------------------------|
---------^--------^----------^--------^----------^--------^------|
-0--00-10-12-00-10-12-0000-10-13-00-10-13-0000-13-10-00-10-13-12~|
    **       **       ****       **       ****       **
R
-----------------------------------------------------------------|
-----------------------------------------------------------------|
-----------------------------------------------------------------|
---------^--------^----------^--------^----------^--------^------|
-------10-12----10-12------10-13----10-13------13-10----10-13-12~|
-0--00-------00-------0000-------00-------0000-------00----------|
    **       **       ****       **       ****       **



L
--------------------------------------------|
--------------------------------------------|
----------------------------1211--11-8---7--|
-----------------------------X-X---X-X---X--|
------^--------^------------10\9---9\6---5--|
-00-10-12-00-10-12-0000-0--0-----0-----0----|
 **       **       ****    *     *     * ~
R
------------------------------------------------|
------------------------------------------------|
----------------------------15-14---14-12--11---|
------^--------^-------------X--X----X--X---X---|
----10-12----10-12----------13\12---12\10---9---|
-00-------00-------0000-0--0------0-------0-----|
 **       **       ****    *      *       * ~




L
-----------------------------------------------------------------|
-----------------------------------------------------------------|
-----------------------------------------------------------------|
-----------------------------------------------------------------|
---------^--------^----------^--------^----------^--------^------|
-0--00-10-12-00-10-12-0000-10-13-00-10-13-0000-13-10-00-10-13-12~|
    **       **       ****       **       ****       **
R
-----------------------------------------------------------------|
-----------------------------------------------------------------|
-----------------------------------------------------------------|
---------^--------^----------^--------^----------^--------^------|
-------10-12----10-12------10-13----10-13------13-10----10-13-12~|
-0--00-------00-------0000-------00-------0000-------00----------|
    **       **       ****       **       ****       **



L
--------------------------------------------|
--------------------------------------------|
--------------------------------------------|
--------------------------------------------|
------^--------^-----------0----------------|
-00-10-12-00-10-12-0000-0--0---------0-12\--|
 **       **       ****    *               
R
--------------------------------------------|
--------------------------------------------|
--------------------------------------------|
------^--------^-----------------4-3--------|
----10-12----10-12---------0-1-3-2\1--------|
-00-------00-------0000-0--0-1-3-----0-12\--|
 **       **       ****    * * *     *




0:23
                                                   
----------------------------------------------------------------|
----------------------------------------------------------------|
-------------------------------------------------5-4---PH-------|
-0-----3---1---1-1-0-------------0-----3---1----/3-2---5~-3-2---|
-0-----3---1---1-1-0-------------0-----3---1------------------3-|
-0-0-0-3-0-1-0-1-1-0-0-0-000-000-0-0-0-3-0-1-0-------0----------|
   * *   *   *       * * *** ***   * *   *   *       *

                                                   
-------------------------------------------------------------------------|
-------------------------------------------------------------------------|
-------------------------------------------------10-1010-10-12--12-12-12-|
-0-----3---1---1-1-0-------------0-----3---1----/8---8-8--8/10--10-10-10-|
-0-----3---1---1-1-0-------------0-----3---1-----------------------------|
-0-0-0-3-0-1-0-1-1-0-0-0-000-000-0-0-0-3-0-1-0---------------------------|
   * *   *   *       * * *** ***   * *   *   *      


----------------------------------------------------------------|
----------------------------------------------------------------|
-------------------------------------------------5-4---PH-------|
-0-----3---1---1-1-0-------------0-----3---1----/3-2---5~-3-2---|
-0-----3---1---1-1-0-------------0-----3---1------------------3-|
-0-0-0-3-0-1-0-1-1-0-0-0-000-000-0-0-0-3-0-1-0-------0----------|
   * *   *   *       * * *** ***   * *   *   *       *

                                                   
----------------------------------------------------------------------|
----------------------------------------------------------------------|
-------------------------------------------------10-1010-10-12--12-12-|
-0-----3---1---1-1-0-------------0-----3---1----/8---8-8--8/10--10-10-|
-0-----3---1---1-1-0-------------0-----3---1--------------------------|
-0-0-0-3-0-1-0-1-1-0-0-0-000-000-0-0-0-3-0-1-0------------------------|
   * *   *   *       * * *** ***   * *   *   *
Tap to rate this tab
# A B C D E F G H I J K L M N O P Q R S T U V W X Y Z