Song name
# A B C D E F G H I J K L M N O P Q R S T U V W X Y Z

Killswitch Engage - Time Will Not Remain tab

Killswitch Engage - Time will not remain
Tabbed by Lorcan Ward

Contact me at:
https://www.facebook.com/LorcanWardGuitar

Guitar Cover video:
http://www.youtube.com/watch?v=bT-61-ouULg

Guitar Solo at 2:26

|--------------------------------------------------------12------12----|
|----------------------------------------------------12------12--------|
|-------------------------------7----------------12--------------------|
|-------9-------7-------9----------7/9----12/14------------------------|
|--5h7-----7p5-----5h7-----5h7-----------------------------------------|
|----------------------------------------------------------------------|

|----------------------------------------------------------------------|
|---15---15b17~~~~---------15--------------15--------15----------------|
|--------------------------14b16----14b16------14b16-----pb16r14p12----|
|----------------------------------------------------------------------|
|----------------------------------------------------------------------|
|----------------------------------------------------------------------|

|---------------------12------14------15------15b17---15~~~~~\---------|
|-----------------12------12------12------12---------------------------|
|--14--12--11h12-------------------------------------------------------|
|----------------------------------------------------------------------|
|----------------------------------------------------------------------|
|----------------------------------------------------------------------|

|--/12--14----15-12-15-12--------15-12-15-12-------17-12-------15-12---|
|----------12-------------15-12--------------15-12-------15-12---------|
|----------------------------------------------------------------------|
|----------------------------------------------------------------------|
|----------------------------------------------------------------------|
|----------------------------------------------------------------------|

|--------14-12-------15-12---------------------------------------------|
|--15-12-------15-12-------15-12-15-12---------------------------------|
|--------------------------------------14-12-14-12--------14--12-------|
|--------------------------------------------------14-12----------14---|
|----------------------------------------------------------------------|
|----------------------------------------------------------------------|

|----------------------------------------------------------------------|
|----------------------------------------------------------------------|
|-------------------------------------------------------16-17-19-------|
|--12--\7-----------------------------16-17-19-16-17-19----------------|
|----------10--7------7~~----15-17-19----------------------------------|
|-----------------10---------------------------------------------------|

|-----------------------------17-19-20-20b22--rp22r20------19~~~~------|
|-----------17-19-20-17-19-20--------------------------17--------------|
|--16-17-19------------------------------------------------------------|
|----------------------------------------------------------------------|
|----------------------------------------------------------------------|
|----------------------------------------------------------------------|

|--19b20--19~~~~~~~~~--------------------------------------------------|
|----------------------------------------------------------------------|
|----------------------------------------------------------------------|
|----------------------------------------------------------------------|
|----------------------------------------------------------------------|
|----------------------------------------------------------------------|
Tap to rate this tab
# A B C D E F G H I J K L M N O P Q R S T U V W X Y Z