Song name
# A B C D E F G H I J K L M N O P Q R S T U V W X Y Z

Killswitch Engage - The Turning Point tab

Killswitch Engage - The Turning Point
Tabbed by Lorcan Ward

Contact me at:
https://www.facebook.com/LorcanWardGuitar

Guitar Cover video:
http://www.youtube.com/watch?v=bT-61-ouULg

Guitar solo at 2:04

|-----------------------12------13--15/17----15------------------------|
|--/10b11r10p8\6-/13~~------13------------13----13-17-13-17b18~~\------|
|----------------------------------------------------------------------|
|----------------------------------------------------------------------|
|----------------------------------------------------------------------|
|----------------------------------------------------------------------|

|--17-13-17-13----13-17-13-17-13----13-17-13----13-17-13----13-17-13---|
|--------------17----------------17----------17----------17------------|
|----------------------------------------------------------------------|
|----------------------------------------------------------------------|
|----------------------------------------------------------------------|
|----------------------------------------------------------------------|

|-----13-17/20~~~~-----12b13--r12p10-----------------------------------|
|--17---------------------------------13~~~\8--------------------------|
|----------------------------------------------9\5~~-------------------|
|----------------------------------------------------------------------|
|----------------------------------------------------------------------|
|----------------------------------------------------------------------|

|----------------------------------------------------------------------|
|--t18p13p11h13-t18p13-t18p13p11h13-t18p13-t18p13p11h13-t18p13p11h13---|
|----------------------------------------------------------------------|
|----------------------------------------------------------------------|
|----------------------------------------------------------------------|
|----------------------------------------------------------------------|

|----------------------------------------------------------------------|
|--t18p13-t18p13p11h13--t18p13-t18p13p11h13----------------------------|
|----------------------------------------------------------------------|
|----------------------------------------------------------------------|
|----------------------------------------------------------------------|
|----------------------------------------------------------------------|

|----------------------------------------------------------------------|
|--t18p13p10h13-t18p13-t18p13p10h13-t18p13-t18p13p10h13--t18p13p10h13--|
|----------------------------------------------------------------------|
|----------------------------------------------------------------------|
|----------------------------------------------------------------------|
|----------------------------------------------------------------------|

|----------------------------------------------------------------------|
|--t18p13-t18p13p10h13--t18p13-t18p13p10h13--t18-10/13~~~~-------------|
|----------------------------------------------------------------------|
|----------------------------------------------------------------------|
|----------------------------------------------------------------------|
|----------------------------------------------------------------------|

|--12--13--15--/17--13--17---20b22--r20p17--20b22~~~~------------------|
|--//--//--//---//--//--//---------------------------------------------|
|----------------------------------------------------------------------|
|----------------------------------------------------------------------|
|----------------------------------------------------------------------|
|----------------------------------------------------------------------|
Tap to rate this tab
 
# A B C D E F G H I J K L M N O P Q R S T U V W X Y Z