Song name
# A B C D E F G H I J K L M N O P Q R S T U V W X Y Z

Killswitch Engage - A Tribute To The Fallen tab

Killswitch Engage - A tribute to the fallen
Tabbed by Lorcan Ward

Contact me at:
https://www.facebook.com/LorcanWardGuitar

Guitar Cover video:
http://www.youtube.com/watch?v=bT-61-ouULg

Guitar Solo at 2:16

|--12-8----8-----------------------------------------------------------|
|-------12---12-8-12-8----8-----------------------------PH-------------|
|----------------------11---11-9-11-9-7-9-7-----11/12\7/9~~~~~---------|
|-------------------------------------------10-------------------------|
|----------------------------------------------------------------------|
|----------------------------------------------------------------------|

|----------------------------------------------------------------------|
|----------------------------------------------------------------------|
|--\4~~~~~----4/7~~~~~----t12p5h9--x6--t11p5h9--x3--t11p7h9--x3--------|
|----------------------------------------------------------------------|
|----------------------------------------------------------------------|
|----------------------------------------------------------------------|

|----------------------------------------------------------------------|
|-----------------------------------------15/17--17h19--19h20--19--15--|
|--t11p4h7--x6---t12p5h9--x3-------------------------------------------|
|----------------------------------------------------------------------|
|----------------------------------------------------------------------|
|-------------------------------\--\--\--------------------------------|
|
|-----------------------------------------14/15--15h17--17h19--17--14--|
|----------------------------------------------------------------------|
|----------------------------------------------------------------------|
|----------------------------------------------------------------------|
|----------------------------------------------------------------------|
|----------------------------------------------------------------------|

|-----------------------------------14--15--15/17------19--19b20-------|
|------------------------15/17--17-----------------15------------------|
|--12--11--------------------------------------------------------------|
|----------12--\9~~~---------------------------------------------------|
|----------------------------------------------------------------------|
|----------------------------------------------------------------------|
|
|------------------------14/15--15--17--19--19/20------22--22b24-------|
|--12--10------------------------------------------19------------------|
|----------11--\7~~----------------------------------------------------|
|----------------------------------------------------------------------|
|----------------------------------------------------------------------|
|----------------------------------------------------------------------|

|--17--19~~~~~~--------------------------------------------------------|
|----------------------------------------------------------------------|
|----------------------------------------------------------------------|
|----------------------------------------------------------------------|
|----------------------------------------------------------------------|
|----------------------------------------------------------------------|
|
|--20--22~~~~~~--------------------------------------------------------|
|----------------------------------------------------------------------|
|----------------------------------------------------------------------|
|----------------------------------------------------------------------|
|----------------------------------------------------------------------|
|----------------------------------------------------------------------|
Tap to rate this tab
# A B C D E F G H I J K L M N O P Q R S T U V W X Y Z