Song name
# A B C D E F G H I J K L M N O P Q R S T U V W X Y Z

Killswitch Engage - In Due Time tab

Killswitch Engage - In Due Time
Tabbed by Lorcan Ward

Contact me at:
https://www.facebook.com/LorcanWardGuitar

Guitar Cover video:
http://www.youtube.com/watch?v=bT-61-ouULg

Guitar Solo at 2:28

|----------------------------------------------------------------------|
|---------18-----------------------------------------------------------|
|--17b19-----rp19r17--(17)~~~~~~~---14h15p14---------------------------|
|--------------------------------------------17--15------15--17--15----|
|------------------------------------------------.---15----------------|
|----------------------------------------------------.-----------------|

|----------------------------------------------------------------------|
|----------------------------------------------------------------------|
|-----------t14p7h10--x4--t17p7h10--x4--t17p10h14--x4--t15p10h14--x4---|
|--15\14~~-------------------------------------------------------------|
|----------------------------------------------------------------------|
|----------------------------------------------------------------------|

|----------------------------------------------------------------------|
|----------------------------------------------------------------------|
|--t19p10h15--x4--t22p10h15--x4--t22p12h17--x4--t21p12h17--x4----------|
|----------------------------------------------------------------------|
|----------------------------------------------------------------------|
|----------------------------------------------------------------------|

|-------------------------------------------17b18r17p15----------------|
|--20b22--rp22~~~~~~---20b22r20p18-----------------------18\15--15\10--|
|----------------------------------19~~~~------------------------------|
|----------------------------------------------------------------------|
|----------------------------------------------------------------------|
|----------------------------------------------------------------------|

|----------------------------------------------------------------------|
|--10/13--13/15--15/17--17\13~~~~~----------10---------10------10--13--|
|---------------------------------------10---------10------10----------|
|-----------------------------------12---------12----------------------|
|----------------------------------------------------------------------|
|----------------------------------------------------------------------|

|----------------------------------------------------------------------|
|------10--13------10--13--10----------10----------10------10--13------|
|--10----------10------------------10----------10------10----------10--|
|------------------------------12----------12--------------------------|
|----------------------------------------------------------------------|
|----------------------------------------------------------------------|

|----------------------------------------------------------------------|
|--11-------10---------------------------------------------------------|
|------10-------10--12--10~~~~~----------------------------------------|
|----------------------------------------------------------------------|
|----------------------------------------------------------------------|
|----------------------------------------------------------------------|
Tap to rate this tab
# A B C D E F G H I J K L M N O P Q R S T U V W X Y Z