Song name
# A B C D E F G H I J K L M N O P Q R S T U V W X Y Z

Killswitch Engage - The New Awakening tab

Killswitch Engage - The New Awakening
Tabbed by Lorcan Ward

Contact me at:
https://www.facebook.com/LorcanWardGuitar

Guitar Cover video:
http://www.youtube.com/watch?v=bT-61-ouULg

Guitar Solo 2:44

|--10-------------------------------------------------------------------|
|--13b15---(15)---(15)---(15)---15rb13----p10h13p10h13b15~~~~~----------|
|-----------------------------------------------------------------------|
|-----------------------------------------------------------------------|
|-----------------------------------------------------------------------|
|-----------------------------------------------------------------------|

|--t15p13-t15p13p10-t15p13-t15p13p10-t17p13-t17p13p10-t17p13-t17p13p10--|
|-----------------------------------------------------------------------|
|-----------------------------------------------------------------------|
|-----------------------------------------------------------------------|
|-----------------------------------------------------------------------|
|-----------------------------------------------------------------------|

|--t18p13-t18p13p10-t18p13-t18p13p10---/17~~~\-------------------------|
|----------------------------------------------------------------------|
|----------------------------------------------------------------------|
|----------------------------------------------------------------------|
|----------------------------------------------------------------------|
|----------------------------------------------------------------------|

|---------------------------------------------------15-10-13-10----10--|
|--15-10-13-10----10-15-10-13-10----10-15-10-13-10--------------13-----|
|--------------13----------------13------------------------------------|
|----------------------------------------------------------------------|
|----------------------------------------------------------------------|
|----------------------------------------------------------------------|

|--15-10-13-10----10-15-10-13-10--15-h16p15p13--15-13--15-h16p15p13----|
|--------------13------------------------------------------------------|
|----------------------------------------------------------------------|
|----------------------------------------------------------------------|
|----------------------------------------------------------------------|
|----------------------------------------------------------------------|

|-----------------------------t18p17-t18p17p15p13-t20p17-t20p17p15p13--|
|--15b16~~~~~~~~~~~----------------------------------------------------|
|----------------------------------------------------------------------|
|----------------------------------------------------------------------|
|----------------------------------------------------------------------|
|----------------------------------------------------------------------|

|---------------------------------------------Dive---------------------|
|--t18p17-t18p17p15p13-t20p17-t20p17p15p13-----\-----------------------|
|-----------------------------------------------\----------------------|
|------------------------------------------------\---------------------|
|-------------------------------------------------\--------------------|
|----------------------------------------------------------------------|
Tap to rate this tab
# A B C D E F G H I J K L M N O P Q R S T U V W X Y Z