Song name
# A B C D E F G H I J K L M N O P Q R S T U V W X Y Z

Killswitch Engage - Rose Of Sharyn tab

Killswitch Engage - Rose of Sharyn
The End of Heartache

***This tab was originally tabbed by funeralforafrie, but I was watching the video
by Adam and Joel and noticed the intro was wrong. If you want to check out the video,
here is
link:

http://www.youtube.com/watch?v=UHxitEme8bQ

I also changed some parts "by ear".
**I have updated the 2nd interlude. I thought that there was a higher part for guitar 1, 
let me know what you think!**


Intro/Verse

Guitar One:

D|-----|-------------------------------------------------------------------|
A|-----|-------------------------------------------------------------------|
F|-----|------------------------------------------------3-2h3p2------------|
C|-----|--------------6-7---------------------------------------2h3p2------|
G|-12\-|0-------------8-5----------1---0-----------0------------------1/3--|
C|-12\-|0-0-0-0-0-0-0--0-0-0-0-0-0-1-0-0-0-0-0-0-0-0-----------------------|
PM        . . . . . .  . . . . . .   .   . . . . .


D|-------------------------------------------------------------------|
A|-------------------------------------------------------------------|
F|------------------------------------------------3-2h3p2------------|
C|--------------6-7---------------------------------------2h3p2------|
G|0-------------8-5----------1---0-----------0------------------1/3--|
C|0-0-0-0-0-0-0--0-0-0-0-0-0-1-0-0-0-0-0-0-0-0-----------------------|
PM  . . . . . .  . . . . . .   .   . . . . .


D|--------------------------------------------------------------------|
A|--------------------------------------------------------------------|
F|--------------8/10--8----------------------------7-5h7p5------------|
C|--------------8/10--8--------6---7-----------------------5h6p5------|
G|0-------------8/10--8--------8---5---0-------------------------5h7--|
C|0-0-0-0-0-0-0-----0--0-0-0-0---0---0-0-0-0-0-0----------------------|
PM  . . . . . .     .  . . . .   .   . . . . .

D|-----------------------------------------------------------------------|
A|-----------------------------------------------------------------------|
F|--------------8/10--8----------------------------7-5h7p5---------------|
C|--------------8/10--8--------6---7-----------------------5h6p5---------|
G|0-------------8/10--8--------8---5---0---------------------------5h7---|
C|0-0-0-0-0-0-0-----0--0-0-0-0---0---0-0-0-0-0-0-------------------------|
PM  . . . . . .     .  . . . .   .   . . . . .

Guitar Two:

D|-----|-----------------------------------------------------------------------|
A|-----|-----------------------------------------------------------------------|
F|-----|o------------------------------------------------6-5h6p5--------------o|
C|-----|o----------------8-7---9\--------------------------------5h7p5--------o|
G|-12\-|---0-------------6-5---9\-------1---2-----------0---------------5/7----|
C|-12\-|---0-0-0-0-0-0-0--0-0-0---0-0-0-1-0-0-0-0-0-0-0-0----------------------|
PM           . . . . . .  . . .   . . .   .   . . . . .

Interlude 1 (Both Guitars)
D|----------------------------------------------------------------|
A|----------------------------------------------------------------|
F|----------------------------------------------------------------|
C|-------------------------------------------------------10----10-|
G|--5-7-8--5-7-8--5-7-8--5-7-8--5-7-8--5-7-8--5-7-8--7-8---7-8----|
C|-0-0-0--0-0-0--7-7-7--5-5-5--0-0-0--0-0-0--7-7-7----------------|
PM . . .  . . .  . . .  . . .  . . .  . . .  . . .   . .   . .
D|--------------------------------------------------------------|
A|--------------------------------------------------------------|
F|--------------------------------------------------------------|
C|------------------------------------------------------10--7\\-|
G|--5-7-8--5-7-8--5-7-8--5-7-8--5-7-8--5-7-8--5-7-8--7-8----7\\-|
C|-0-0-0--0-0-0--7-7-7--5-5-5--0-0-0--0-0-0--7-7-7----------7\\-|
PM . . .  . . .  . . .  . . .  . . .  . . .  . . .   . .

Pre-Chorus Gtr.1
D|--------------------------------------------------------------|
A|--------------------------------------------------------------|
F|--------------------------------------------------------------|
C|-1------------------------------3-----------------------------|
G|-1-1-1-1-1-1-1-1-1-1-1-1-1-1-1--3-3-3-3-3-3-3-3-3-3-3-3-3-3-3-|
C|-1-1-1-1-1-1-1-1-1-1-1-1-1-1-1--3-3-3-3-3-3-3-3-3-3-3-3-3-3-3-|
PM   . . . . . . . . . . . . . .    . . . . . . . . . . . . . .
D|-----------------------------------------------------------|
A|-----------------------------------------------------------|
F|-----------------------------------------------------------|
C|-5------------------------------8---------------8-8----3-3-|
G|-5-5-5-5-5-5-5-5-5-5-5-5-5-5-5--8-8-8-8-8-8-8-8-8-8-8--3-3-|
C|-5-5-5-5-5-5-5-5-5-5-5-5-5-5-5--8-8-8-8-8-8-8-8-8-8-8--3-3-|
PM   . . . . . . . . . . . . . .    . . . . . . .     .

Pre-Chorus Gtr.2 (repeat as many times as needed)
D|---------------------------------|
A|---------------------------------|
F|-8-8-8-8-8-8-8-8-8-8-8-8-8-8-8-8-|
C|-x-x-x-x-x-x-x-x-x-x-x-x-x-x-x-x-|
G|-6-6-6-6-6-6-6-6-6-6-6-6-6-6-6-6-|
C|---------------------------------|
PM . . . . . . . .       . .

Verse Gtr.1
D|-------------------------------------------------------------------|
A|-------------------------------------------------------------------|
F|------------------------------------------------3-2h3p2------------|
C|--------------6-7---------------------------------------2h3p2------|
G|0-------------8-5----------1---0-----------0------------------1/3--|
C|0-0-0-0-0-0-0--0-0-0-0-0-0-1-0-0-0-0-0-0-0-0-----------------------|
PM  . . . . . .  . . . . . .   .   . . . . .

D|--------------------------------------------------------------------|
A|--------------------------------------------------------------------|
F|------------------------------------------------3-2h3p2-------------|
C|--------------6-7---------------------------------------3*----------|
G|0-------------8-5----------1---0-----------0------------------------|
C|0-0-0-0-0-0-0--0-0-0-0-0-0-1-0-0-0-0-0-0-0-0------------------------|
PM  . . . . . .  . . . . . .   .   . . . . .

Verse Gtr. 2
D|--------------------------------------------------------------------|
A|--------------------------------------------------------------------|
F|-----------------------------------------------6-5h6p5--------------|
G|--------------8-7---9\---------------------------------5h7p5--------|
C|0-------------6-5---9\-------1---2-----------0----------------5/7---|
G|0-0-0-0-0-0-0--0-0-0---0-0-0-1-0-0-0-0-0-0-0-0----------------------|
PM  . . . . . .  . . .   . . .   .   . . . . .


Interlude 2 Guitar 1

D|------------------------------------------------------------------------------------------------------------------------|
A|------------------------------------------------------------------------------------------------------------------------|
F|------------------------------------------------------------------------------------------------------------------------|
C|------------------------------------------------------------------------------------------------------14-------14--12\\-|
G|--10--12--13--10--12--13---10---12---13---10---12---13--10--12--13---10--12--13---10---12---13--11-12-----11-12----12\\-|
C|-0---0---0---0---0----0---12---12---12---10---10---10--0---0---0---0---0----0---12---12---12-----------------------12\\-|
PM .   .   .   .   .    .    .    .    .    .    .    .  .   .   .   .   .    .    .    .   .     .  .      .  .

Interlude 2 Guitar 2
D|---------------------------------------------------------------------|
A|---------------------------------------------------------------------|
F|---------------------------------------------------------------------|
C|-------------------------------------------------------10-----10-7\\-|
G|--5-7-8--5-7-8--5-7-8--5-7-8--5-7-8--5-7-8--5-7-8--7-8----7-8----7\\-|
C|-0-0-0--0-0-0--7-7-7--5-5-5--0-0-0--0-0-0--7-7-7-----------------7\\-|
PM . . .  . . .  . . .  . . .  . . .  . . .  . . .   . .    . .

Pre-Chorus Gtr.1
D|-------------------------------------------------------------|
A|-------------------------------------------------------------|
F|-------------------------------------------------------------|
C|-1-----------------------------3-----------------------------|
G|-1-1-1-1-1-1-1-1-1-1-1-1-1-1-1-3-3-3-3-3-3-3-3-3-3-3-3-3-3-3-|
C|-1-1-1-1-1-1-1-1-1-1-1-1-1-1-1-3-3-3-3-3-3-3-3-3-3-3-3-3-3-3-|
PM   . . . . . . . . . . . . . .   . . . . . . . . . . . . . .
D|---------------------------------------------------------|
A|---------------------------------------------------------|
F|---------------------------------------------------------|
C|-5-----------------------------8---------------8-8---3-3-|
G|-5-5-5-5-5-5-5-5-5-5-5-5-5-5-5-8-8-8-8-8-8-8-8-8-8-8-3-3-|
C|-5-5-5-5-5-5-5-5-5-5-5-5-5-5-5-8-8-8-8-8-8-8-8-8-8-8-3-3-|
PM   . . . . . . . . . . . . . .   . . . . . . .     .

Pre-Chorus Gtr.2
D|-----------------------------------------------------------------------------|
A|-----------------------------------------------------------------------------|
F|-8-8-8-8-8-8-8-8-8-8-8-8-8-8-8--10-10-10-10-10-10-10-10-10-10-10-10-10-10-10-|
C|-x-x-x-x-x-x-x-x-x-x-x-x-x-x-x--x--x--x--x--x--x--x--x--x--x--x--x--x--x--x--|
G|-6-6-6-6-6-6-6-6-6-6-6-6-6-6-6--8--8--8--8--8--8--8--8--8--8--8--8--8--8--8--|
C|-----------------------------------------------------------------------------|

D|-----------------------------------------------------------------------------|
A|-----------------------------------------------------------------------------|
F|-7-7-7-7-7-7-7-7-7-7-7-7-7-7-7--10-10-10-10-10-10-10-10-10-10-10-10-10-10-10-|
C|-x-x-x-x-x-x-x-x-x-x-x-x-x-x-x--x--x--x--x--x--x--x--x--x--x--x--x--x--x--x--|
G|-5-5-5-5-5-5-5-5-5-5-5-5-5-5-5--8--8--8--8--8--8--8--8--8--8--8--8--8--8--8--|
C|-----------------------------------------------------------------------------|

Chorus (Both Guitars)
D|-----------------------------------------------------------------------------|
A|-----------------------------------------------------------------------------|
F|-----------------------------------------------------------------------------|
C|-1---8-7-8-7-5-7\---3---8-7-8-7-5-7\---5----8-00-5----8-00-8----8-00-5--00-3-|
G|-1-------------7\---3-------------7\---5---7--00-5---7--00-8---7--00-5--00-3-|
C|-1--0-0-0-0-0--7\---3--0-0-0-0-0--7\---5--0---00-5--0---00-8--0---00-5--00-3-|
PM    . . . . .          . . . . .          ..  ..    ..  ..    ..  ..    ..

Interlude 2 Gtr. 1 (Listen to song for timing)
D|-6--------|
A|--6--6--6-|
F|---5--5---|
C|----------|
G|----------|
C|----------|

Interlude 2 Gtr. 2 (Let notes ring)
D|-----------------------------------------------------|
A|-----------------------------------------------------|
F|-----------------------------------------------------|
C|-----------------------------------------------------|
G|-----------------------------------------------------|
C|-1------------3------------5------------8------------|

Chorus (Both Guitars)
D|-----------------------------------------------------------------------------|
A|-----------------------------------------------------------------------------|
F|-----------------------------------------------------------------------------|
C|-1---8-7-8-7-5-7\---3---8-7-8-7-5-7\---5----8-00-5----8-00-8----8-00-5--00-3-|
G|-1-------------7\---3-------------7\---5---7--00-5---7--00-8---7--00-5--00-3-|
C|-1--0-0-0-0-0--7\---3--0-0-0-0-0--7\---5--0---00-5--0---00-8--0---00-5--00-3-|
PM    . . . . .          . . . . .          ..  ..    ..  ..    ..  ..    ..
Tap to rate this tab
# A B C D E F G H I J K L M N O P Q R S T U V W X Y Z