Guitaretab - guitar tabs
Song name
# A B C D E F G H I J K L M N O P Q R S T U V W X Y Z

Killswitch Engage - Breathe Life tab

**THIS IS NOT THE WHOLE SONG>>> JUST THE CHORUS**

Tabbed by: Jeff Harrison 
Email:harrison1984@hotmail.com

"SINCE EVERYONE HAS GOTTEN THIS PART WRONG... HERE IS THE CORRECT WAY 
TO PLAY 2ND GUITAR CHORUS" 

Tuning: C F C F A D 

 /  slide up
 x  Mute note
[ Tab from: http://www.guitaretab.com/k/killswitch-engage/50933.html ]
Chorus
Guitar 1 
|------------------------------------|
|------------------------------------| 
|------------------------------------|
|------------------------------------|
|--0--10-8--7-5--3-0--0000-0-0000-0--|
|--0--10-8--7-5--3-0--0000-0-0000-0--|
                      ****   **** *
Guitar 2
|---------------------------------------------------------------------------|
|---------------------------------------------------------------------------|
|--9/10-10-10-10-10-10-10-10-10-10-9-9-9-9/10-10-10-10-10-10-10-10-10-10-10-|
|--x-x--x--x--x--x--x--x--x--x--x--x-x-x-x-x--x--x--x--x--x--x--x--x--x--x--|
|--7/8--8--8--8--8--8--8--8--8--8--7-7-7-7/8--8--8--8--8--8--8--8--8--8--8--|
|---------------------------------------------------------------------------|

|---------------------------------------------------------------------------|
|-10-10-10-10---------------------------------------------------------------|
|-x--x--x--x--12-12-12-12-12-12-12-12-12-12-12--5-5-5-5/7-7-7-7-7-7-7--X-X--|
|-7--7--7--7--x--x--x--x--x--x--x--x--x--x--x---x-x-x-x-x-x-x-x-x-x-x--X-X--|
|-------------10-10-10-10-10-10-10-10-10-10-10--3-3-3-3/5-5-5-5-5-5-5--X-X--|
|---------------------------------------------------------------------------|

LISTEN TO THE TIMING,
JUST REPEATS IT OVER ..... AN YOUR GOOD TO GO ;)

 /  slide up
 x  Mute note
Related for Breathe Life tab
Advertisement will be closed in 10 seconds