Song name
# A B C D E F G H I J K L M N O P Q R S T U V W X Y Z

Killswitch Engage - Rusted Embrace tab

KILLSWITCH ENGAGE - RUSTED EMBRACE

Tuning- CGCFAD


Intro/Bridge:
|------------------|
|------------------|
|------------------|
|-------3-------4--|
|-4-3-2-1-4-3-2-2--|
|-4-3-2---4-3-2----|
PM.....   .....

Verse:
|-----------------------------------------------------------------|
|-----------------------------------------------------------------|
|-----------------------------------------------------------------|
|-------------------------------------------------------------333-|
|-------333333----1111114444443333------333333----111111444444----|
|-333333------3333----------------333333------3333----------------|
PM......      ....                ......      ....

Chorus:
|---------------------|
|---------------------|
|---------------------|
|-----5------3--6--5^-|
|-3-x-3--3-x-1--4--3^-|
|-3-x----3-x----------|
PM  ..     ..

Breakdown 1:
|-----------------------------|
|-----------------------------|
|-----------------------------|
|------------------------676--|
|----------------44444444-----|
|--333333333356---------------|
PM........................

Bridge 2:
|-----------------------|
|-----------------------|
|-----------------------|
|-10\-------8\-------6\-|3x
|--8\-------6\-------4\-|
|-----------------------|

Fill:
|-------------|
|-------------|
|-------------|
|---6-6-6-6-6-|
|---4-4-4-4-4-|
|-------------|
PM ............

Breakdown 2:
|--------------------------------------------|
|--------------------------------------------|
|--------------------------------------------|
|-3~--------------------2--------------------|
|-3~--444333---5-6-5-6--2--333222---5-6-5-5--|
|-3~-----------5-6-5-6--2-----------5-6-5-6--|
pm            ........             ...........

Ending
|---------------------------------|
|---------------------------------|
|---------------------------------|
|-------3-------4-------5-5---4---|
|-4-3-2-1-4-3-2-2-4-3-2-3-3-6-2-5-|
|-4-3-2---4-3-2---4-3-2-----6---5-|
Pm.....   .....   .....
Tap to rate this tab
 
# A B C D E F G H I J K L M N O P Q R S T U V W X Y Z