Guitaretab - guitar tabs
Song name
# A B C D E F G H I J K L M N O P Q R S T U V W X Y Z

Killswitch Engage - And Embers Rise tab

Killswitch Engage - And Embers Rise
Tabbed: Will Sharp
Tuning : CGCFAD
Email: chimaira_tool@hotmail.com

Cool acoutic interlude by killswitch, Guitar 1 & 2 are finger picked.

Guitar 1: Clean (repeat enough to cover Guitar 2's part)
D|--5-------5-------5-------5-------5-------5-----------------------------|
A|----6---6---6---6---6---6---6---6---6---6---6---------------------------|
F|------3-------3-------3-------3-------3-------3-------------------------|
C|------------------------------------------------------------------------|
G|------------------------------------------------------------------------|
C|------------------------------------------------------------------------|
[ Tab from: http://www.guitaretab.com/k/killswitch-engage/55302.html ]
Guitar 2: clean/Acoustic
D|--8---6---5---6---5---3---5---3---1---0-----------/8---6---5---6---5---3|
A|-10---8---6---8---6---5---6---5---3---1---1---3--/10---8---6---8---6---5|
F|------------------------------------------2---3-------------------------|
C|------------------------------------------------------------------------|
G|------------------------------------------------------------------------|
C|------------------------------------------------------------------------|

									 x7
D|---5---6---8---10---10---10---------------------------------------------|
A|---6---8--10---11---11---11---------------------------------------------|
F|------------------------------------------------------------------------|
C|------------------------------------------------------------------------|
G|------------------------------------------------------------------------|
C|------------------------------------------------------------------------|

Guitar 3: Comes in on the 4th repeat 
	  (distorted overlay) Quietly tremelo pick these (14 is held 4 long)

D|-------13--------13~----13-12-----------13-12------------13-12----------|
A|------------------------------13~-------------13~--------------13~------|
F|--14~----14~---------------------14~-------------14~--------------14~---|
C|------------------------------------------------------------------------|
G|------------------------------------------------------------------------|
C|------------------------------------------------------------------------|
Related for And Embers Rise tab
Advertisement will be closed in 10 seconds