Guitaretab - guitar tabs
Song name
# A B C D E F G H I J K L M N O P Q R S T U V W X Y Z

Killswitch Engage - The End Of A Heartache tab

this is the album the end of a heartache from kill switch   Title : A Bid Farewell
this was MIXED BY JOE ADZHIYEV
        Artist : Killswitch Engage
         Album : The End of Heartache
  Copyright (c): (Road Runner Records) (2004)
        Version: 1.0
           Date: 7/18/2004
Transcribed by : sumpm1 
        Tuning : C G C F A D (Drop C)

  Release Notes:Some of these riffs will really give your hand a stretch.
		Almost every Riff has 2 guitars at the same time. If you
		see 2 staffs connected, or 3 staffs connected, that means
		there is 3 guitars for that part. The top staff is Gtr 1,
		next down is Gtr 2 etc.....

		If you see more than one version tab of this song, consider
		mine to be correct and the other to be crap. I wouldn't 
		have to tab songs that have already been tabbed if people
		would submit complete and correct tabs. Now go tear it up.
================================================================================
.  - palm mute           /  - slide up to
\  - slide down to       ~  - vibrato
h  - hammer on           b  - Bend
p  - pull off            Suffixes for bend
t  - tap                 f  - full bend    h - half bend
ph - pinched harmonic    q  - quarter bend t - tap bend
*  - see comment         ^  - Hold bend    r release bend
x  - Stuccatto           ~  - vibrato bend
,  - slight palm mute    () - ghost note, sustained note
"  - tremolo note        <> - Trill
================================================================================

Riff 1 
|---------------------------8------|
|-------10--------10---------------|
|---8---------8---------8----------|
|-0---0-----0---0-----0---0--------|
|----------------------------------|
|----------------------------------|

Riff 2
|--------------------------------------------------------|
|--------------------------------------------------------|
|--------------------------------------------------------|
|--------------------------------------------------------|
|-0-0-0--0--0--0--0-0-0--0--0--0--0-0-0--0--0-0-0-0-3----|
|-0-0-0--0--0--0--0-0-0--0--0--0--0-0-0--0--0-0-0-0-3----|

Riff 3
|----------------------------------------------------------|
|----------------------------------------------------------|
|----------------------------------------------------------|
|----------------------------------------------------------|
|-------1h2---1h2--------1h2---1h2--------1h2-------2h3----|
|-0-0-0-1h2-0-1h2--0-0-0-1h2-0-1h2--0-0-0-1h2-0-0-0-2h3----|
|
|----------------------------------------------------------|
|----------------------------------------------------------|
|----------------------------------------------------------|
|----------------------------------------------------------|
|-------6h7---6h7--------6h7---6h7--------6h7-------7h8----|
|-0-0-0-----0------0-0-0-----0------0-0-0-----0-0-0--------|

Riff 4 (play each note twice)
|---------------------------------------------------------|
|---------------------------------------------------------|
|---------------------------------------------------------|
|-7------7------------------------------------------------|
|---10-8---10-8-10-8-7-10-8-7-7-7-7-8-8-10-8-8-8-8-8-8----|
|---------------------------------------------------------|
|
|---------------------------------------------------------|
|---------------------------------------------------------|
|---------------------------------------------------------|
|-3--2---3--2----2------2----------------2----------------|
|------5------5----5-3----5-3-3-3-3-5-5----5-5-5-5-5-5----|
|---------------------------------------------------------|

Riff 5 (play each note twice)
|-----------------------------------------------------------|
|-----------------------------------------------------------|
|-----------------------------------------------------------|
|-7------7------10-7----10-7--------------------------------|
|---10-8---10-8------10------10-7-7-7-8-8-10-8-8-8-8-8-8----|
|-----------------------------------------------------------|
|
|-----------------------------------------------------------|
|-----------------------------------------------------------|
|-----------------------------------------------------------|
|-3--2---3--2----5-3--2--5-3--2------------2----------------|
|------5------5-----------------3-3-3-5-5----5-5-5-5-5-5----|
|-----------------------------------------------------------|

Riff 6
|-----------------------------------------------------------------|
|-----------------------------------------------------------------|
|-----------------------------------------------------------------|
|--------------------5--------------2-----------3-----------------|
|--0-----------------3--------------0-----------1------------0----|
|--0-----------------------------------------------------3-2-0----|
|
|-----------------------------------------------------------------|
|-----------------------------------------------------------------|
|-14-12-10-14-12-10-12-10--9-12-10--9---9--10--10-12-10-----------|
|-----------------------------------------------------------------|
|-----------------------------------------------------------------|
|-----------------------------------------------------------------|
|
|-----------------------------------------------------------------|
|-----------------------------------------------------------------|
|-10--9--7-10--9--7--9--7-----9--7----------7---7--9--7-----------|
|-------------------------10-------10--10-------------------------|
|-----------------------------------------------------------------|
|-----------------------------------------------------------------|

Riff 7
|-------------------------------------------------------------|
|-------------------------------------------------------------|
|-------------------------------------------------------------|
|--------------------5------------2-----------3---------------|
|--0-----------------3------------0-----------1---------------|
|--0---------------------------------------------------3-2----|
|
|-------------------------------------------------------------|
|-------------------13-10-8-13-10-8---------------------------|
|-14-12-10-14-12-10-------------------9--10--10-12-10---------|
|-------------------------------------------------------------|
|-------------------------------------------------------------|
|-------------------------------------------------------------|
|
|-------------------------------------------------------------|
|-------------------------------------------------------------|
|-10--9--7-10--9--7-12-10-9-12-10-9-------7---7--9--7---------|
|------------------------------------10-----------------------|
|-------------------------------------------------------------|
|-------------------------------------------------------------|

Riff 8
|---------------------------------------------------|
|---------------------------------------------------|
|---------------------------------------------------|
|---------------------------------------------------|
|-2-2-2-3-3-5-2-2-2-3-3-5-2-2-2-3-3-5-2----2-3-0----|
|-2-2-2-3-3-5-2-2-2-3-3-5-2-2-2-3-3-5-2----2-3-0----|

Riff 9
|-------------------------------------------|
|-------------------------------------------|
|-------------------------------------------|
|-------------------------------------------|
|--------------------------------3----------|
|-0--0-0-0-0--0-0-0-0--0-0-3h5-5---5-5-3----|
     . . .    . . .    . .  

Riff 10
|------------------------------------------|
|------------------------------------------|
|------------------------------------------|
|------------------------------------------|
|---------------------------------3h5-5----|
|-0--0-0-0-0--0-0-0-0--0-0-3h5-5-----------|
     . . .    . . .    . .

Riff 11
|------------------------------------------------------------------------|
|------------------------------------------------------------------------|
|------------------------------------------------------------------------|
|------------------------------------------------------------------------|
|------------------------------------------------------------------------|
|-5-5-5-5-5-5-5-5-5-5-5-5-7-7--7-7--7-7-7-7--7-7--7-7-8--8--8-8--8--8----|
|
|------------------------------------------------------------------------|
|------------------------------------------------------------------------|
|------------------------------------------------------------------------|
|------------------------------------------------------------------------|
|-------5-----------5------------7-------------7--------------8----------|
|-5-7-8---8-7-5-7-8---8-7-7-8-10---10-8-7-8-10---10-8-8-10-12---12-10----|

Riff 11 (continued)
|-------------------------------------------------------|
|-------------------------------------------------------|
|-------------------------------------------------------|
|-------------------------------------------------------|
|-------------------------------------------------------|
|-8--8--8-8--8--8-8--8--8--8--8--8-10-10-10-10-10-10----|
|
|-------------------------------------------------------|
|-------------------------------------------------------|
|-------------------------------------------------------|
|-------------------------------------------------------|
|---------8---------------10----------------12----------|
|-8-10-12---12-10-8-10-12----12-10-10-12-15----15-12----|

Riff 12
|------------------------------------------------------------------------|
|------------------------------------------------------------------------|
|------------------------------------------------------------------------|
|-------------------------2---------------------------3------------------|
|-5-----------------------0---------------------------1------------------|
|-5-----------------------2---------------------------3------------------|
|
|------------------------------------------------------------------------|
|------------------------------------------------------------------------|
|------------------------------------------------------------------------|
|------------------------------------------------------------------------|
|-------5-----------5------------7-------------7--------------8----------|
|-5-7-8---8-7-5-7-8---8-7-7-8-10---10-8-7-8-10---10-8-8-10-12---12-10----|

Riff 12 (continued)
|-------------------------------------------------------|
|-------------------------------------------------------|
|-------------------------------------------------------|
|-----------------------------------5-------------------|
|-----------------------------------3-------------------|
|-----------------------------------5-------------------|
|
|-------------------------------------------------------|
|-------------------------------------------------------|
|-------------------------------------------------------|
|-------------------------------------------------------|
|---------8---------------10----------------12----------|
|-8-10-12---12-10-8-10-12----12-10-10-12-15----15-12----|

Riff 13
|------------------------------------------------------------------------|
|------------------------------------------------------------------------|
|------------------------------------------------------------------------|
|-------------------------2---------------------------3------------------|
|-5-----------------------0---------------------------1------------------|
|-5-----------------------2---------------------------3------------------|
|
|------------------------------------------------------------------------|
|------------------------------------------------------------------------|
|------------------------------------------------------------------------|
|------------------------------------------------------------------------|
|-------5-----------5------------7-------------7--------------8----------|
|-5-7-8---8-7-5-7-8---8-7-7-8-10---10-8-7-8-10---10-8-8-10-12---12-10----|

Riff 13 (continued)
|--------------------------------------|
|--------------------------------------|
|--------------------------------------|
|------------------5--5--5--5--5--5----|
|------------------3--3--3--3--3--3----|
|------------------5--5--5--5--5--5----|
|
|--------------------------------------|
|--------------------------------------|
|--------------------------------------|
|--------------------------------------|
|---------8-------10-10-10-10-10-10----|
|-8-10-12---12-10-10-10-10-10-10-10----|

Riff 14
|---------------------------------------------------------------------|
|---------------------------------------------------------------------|
|---------------------------------------------------------------------|
|--------------------5--5--5--5--5--5-2--2-2--2-2--2--3--3-3-3--------|
|--0--0--0--0--0--0--3--3--3--3--3--3-0--0-0--0-0--0--1--1-1-1-3-2----|
|--0--0--0--0--0--0--5--5--5--5--5--5-2--2-2--2-2--2--3--3-3---3-2----|
|
|---------------------------------------------------------------------|
|---------------------------------------------------------------------|
|-14-12-10-14-12-10-12-10--9-12-10--9----9---10---10-12-10------------|
|---------------------------------------------------------------------|
|---------------------------------------------------------------------|
|---------------------------------------------------------------------|
|
|---------------------------------------------------------------------|
|---------------------------------------------------------------------|
|-10--9--7-10--9--7--9--7-----9--7------------7----7--9--7------------|
|-------------------------10-------10---10----------------------------|
|---------------------------------------------------------------------|
|---------------------------------------------------------------------|

Riff 15
|---------------------------------------------------------------------|
|---------------------------------------------------------------------|
|---------------------------------------------------------------------|
|--------------------5--5-5--5--5-5-2--2-2--2-2--2--3--3-3-3----------|
|--0--0--0--0--0--0--3--3-3--3--3-3-0--0-0--0-0--0--1--1-1-1-3-2-0----|
|--0--0--0--0--0--0--5--5-5--5--5-5-2--2-2--2-2--2--3--3-3---3-2-0----|
|
|---------------------------------------------------------------------|
|-------------------13-10-8-13-10-8-----------------------------------|
|-14-12-10-14-12-10--------------------9---10---10-12-10--------------|
|---------------------------------------------------------------------|
|---------------------------------------------------------------------|
|---------------------------------------------------------------------|
|
|---------------------------------------------------------------------|
|---------------------------------------------------------------------|
|-10--9--7-10--9--7-12-10-9-12-10-9---------7----7--9--7--------------|
|-------------------------------------10------------------------------|
|---------------------------------------------------------------------|
|---------------------------------------------------------------------|



Song Structure:

Riff 1  4X
Riff 2  2X
Riff 2  2X over Riff 2
Riff 3  2X Gtr1 only
Riff 2  2X
Riff 3  2X Gtr1 only
Riff 4  1X
Riff 5  1X
Riff 6  1X
Riff 7  1X
Riff 2  2X 
Riff 3  2X 
Riff 8  2X 
Riff 4  1X
Riff 5  1X
Riff 6  1X
Riff 7  1X
Riff 6  1X
Riff 7  1X
Riff 9  1X
Riff 10 1X
Riff 9  1X
Riff 10 1X
Riff 9  1X
Riff 11 2X
Riff 12 1X
Riff 13 1X
Riff 4  1X
Riff 5  1X
Riff 6  1X
Riff 7  1X
Riff 14 1X
Riff 15 1X
Artist: Killswitch Engage
Title: Take this oath
Album: The end of heartache

Drop C Tuning

. = palm mute
p = pull off
/ = slide down
\ = slide up




gtr 1+2
x2
|--------------------------------------------------------------------------|
|--------------------------------------------------------------------------|
|--------------------------------------------------------------------------|
|--------------------------------------------------------------------------|
|-6-5-0-3--6-5-0-3-5-0-8-0--6-5-0-3-5-0-8-0--0-0-0-------------------------|
|-6-5-0-3--6-5-0-3-5-0-8-0--6-5-0-3-5-0-8-0--0-0-0-------------------------|
  . . .    . . .     .      . .       .      . .

gtr 1+2
x2
|--------------------------------------------------------------------------|
|--------------------------------------------------------------------------|
|--------------------------------------------------------------------------|
|--------------------------------------------------------------------------|
|-6/5-0-3--6/5-0-3-5-0-8-0-0-0-6/5-0-3-5-0-8-0--0-0-0----------------------|
|-6/5-0-3--6/5-0-3-5-0-8-0-0-0-6/5-0-3-5-0-8-0--0-0-0----------------------|
      .        .     .     . .     .     .      . .

gtr 1+2
x2
|--------------------------------------------------------------------------|
|--------------------------------------------------------------------------|
|--------------------------------------------------------------------------|
|--------------------------------------------------------------------------|
|-6-5-0-3-0-6-5-0-3-5-0-8-0-0-0-6-5-0-3-5-0-8-0--0-0-0---------------------|
|-6-5-0-3-0-6-5-0-3-5-0-8-0-0-0-6-5-0-3-5-0-8-0--0-0-0---------------------|
  . . .   . . . .     .     . . . . .     .      . .

gtr 1
|--------------------------------------------------------------------------|
|--------------------------------------------------------------------------|
|--------------------------------------------------------------------------|
|--------------------------------------------------------------------------|
|-3-----5-----6---3-----5----6----------5-----6---------5-----6------------|
|---5-5---5-5---5---5-5---5-5---5-6-6-6--6-6----6-3-3-3---3-3---3----------|
|   . .   . .   .   . .   . .   .   . .  . .    .   . .   . .   .          |
|                                                                          |
|gtr 2                                                                     |
|--------------------------------------------------------------------------|
|--------------------------------------------------------------------------|
|--------------------------------------------------------------------------|
|--------------------------------------------------------------------------|
|-5-------------------------------6---------------3------------------------|
|-5-------------------------------6---------------3------------------------|


gtr 1
|--------------------------------------------------------------------------|
|--------------------------------------------------------------------------|
|--------------------------------------------------------------------------|
|--------------------------------------------------------------------------|
|-3-----5-----6---3-----5----6----------5-----6---\10-8-7-5-8-7-5-5--------|
|---5-5---5-5---5---5-5---5-5---5-6-6-6--6-6----6--------------------------|
|   . .   . .   .   . .   . .   .   . .  . .    .     . . .   . . .        | 

|                                                                          |
|gtr 2                                                                     |
|--------------------------------------------------------------------------|
|--------------------------------------------------------------------------|
|--------------------------------------------------------------------------|
|-5------------------------------------------------------------------------|
|-3-------------------------------6---------------3------------------------|
|---------------------------------6---------------3------------------------|


gtr 1+2
|--------------------------------------------------------------------------
|--------------------------------------------------------------------------
|--------------------------------------------------------------------------
|--------------------------------------------------------------------------
|-3-----5-----6---3-----5----6----------5-----6---------5-----6------------
|---5-5---5-5---5---5-5---5-5---5-6-6-6--6-6----6-3-3-3---3-3---3----------
    . .   . .   .   . .   . .   .   . .  . .    .   . .   . .   .          


--------------------------------------------------------------------------|
--------------------------------------------------------------------------|
--------------------------------------------------------------------------|
--------------------------------------------------------------------------|
-3-----5-----6---3-----5----6----------5-----6---\10-8-7-5-8-7-5-5--------|
---5-5---5-5---5---5-5---5-5---5-6-6-6--6-6----6--------------------------|
    . .   . .   .   . .   . .   .   . .  . .    .     . . .   . . .        


gtr 1+2
x4
|--------------------------------------------------------------------------|
|--------------------------------------------------------------------------|
|--------------------------------------------------------------------------|
|---------------5---5--3--5------------------------------------------------|
|--6------3-----3--0--0--0--0-5-6-5-0-5-7----------------------------------|
|--6------3-------------------------------6--------------------------------|
                   .  .  .  . . . . .     .
gtr 1
|--------------------------------------------------------------------------|
|--------------------------------------------------------------------------|
|--------------------------------------------------------------------------|
|--------------------------------------------------------------------------|
|-3-----5-----6---3-----5----6----------5-----6---------5-----6------------|
|---5-5---5-5---5---5-5---5-5---5-6-6-6--6-6----6-3-3-3---3-3---3----------|
|   . .   . .   .   . .   . .   .   . .  . .    .   . .   . .   .          | 

|                                                                          |
|gtr 2                                                                     |
|--------------------------------------------------------------------------|
|--------------------------------------------------------------------------|
|--------------------------------------------------------------------------|
|--------------------------------------------------------------------------|
|-5-5-5-5-5-5--5-5-5-5-5-5-5-5----6-6-6-6-6-6-6---3-3-3-3-3-3-3------------|
|-5-5-5-5-5-5--5-5-5-5-5-5-5-5----6-6-6-6-6-6-6---3-3-3-3-3-3-3------------|
    . .   . .      . .   . .        . .   . .       . .   . .

gtr 1
|--------------------------------------------------------------------------|
|--------------------------------------------------------------------------|
|--------------------------------------------------------------------------|
|--------------------------------------------------------------------------|
|-3-----5-----6---3-----5----6----------5-----6---\10-8-7-5-8-7-5-5--------|
|---5-5---5-5---5---5-5---5-5---5-6-6-6--6-6----6--------------------------|
|   . .   . .   .   . .   . .   .   . .  . .    .     . . .   . . .        | 

|                                                                          |
|gtr 2                                                                     |
|--------------------------------------------------------------------------|
|--------------------------------------------------------------------------|
|--------------------------------------------------------------------------|
|--------------------------------------------------------------------------|
|-5-5-5-5-5-5--5-5-5-5-5-5-5-5----6-6-6-6-6-6-6---3------------------------|
|-5-5-5-5-5-5--5-5-5-5-5-5-5-5----6-6-6-6-6-6-6---3------------------------|
    . .   . .      . .   . .        . .   . .       

gtr 1+2
x4
|--------------------------------------------------------------------------|
|--------------------------------------------------------------------------|
|--------------------------------------------------------------------------|
|---------------5---5--3--5------------------------------------------------|
|--6------3-----3--0--0--0--0-5-6-5-0-5-7----------------------------------|
|--6------3-------------------------------6--------------------------------|
                   .  .  .  . . . . .     .

gtr 1+ 2(?)
|--------------------------------------------------------------------------|
|--------------------------------------------------------------------------|
|--------------------------------------------------------------------------|
|-0-------------------------------------0----------------------------------|
|-0-------------------------------------0----------------------------------|
|-0-------------------------------------0----------------------------------|


gtr 1+2
|---------------------------------------------------------------------------
|---------------------------------------------------------------------------
|---------------------------------------------------------------------------
|--3p0---0-----3p0----0-----3p0---0-----3p0----0------2p0---------2p0-------
|------0---0-0------0---0-0-----0---0-0------0---0-0------0-3-0-0----0-3-0-0
|---------------------------------------------------------------------------
       .   . .      .   . .     .   . .      .   . .      .   . .    .   . . 
---------------------------------------------------------------------------|
---------------------------------------------------------------------------|
---------------------------------------------------------------------------|
2p0---------2p0---------5p0---0-----5p0---0-----5p0---0-----5p0---0--------|
----0-3-0-0-----0-3-0-0-----1---1-1-----1---1-1-----1---1-1-----1---1-1----|
---------------------------------------------------------------------------|
    .   . .     .   . .     .   . .     .   . .     .   . .     .   . .

gtr 1+2
|--------------------------------------------------------------------------|
|--------------------------------------------------------------------------|
|--------------------------------------------------------------------------|
|--------------------------------------------------------------------------|
|-0------------------------------------------------------------------------|
|-0------------------------------------------------------------------------|


gtr 1
|--------------------------------------------------------------------------|
|--------------------------------------------------------------------------|
|--------------------------------------------------------------------------|
|--------------------------------------------------------------------------|
|-0-0-0-0-0-0-0--0--0------------------------0-0-0-0-0-0-0--0--0-----------|
|-0-0-0-0-0-0-0--0--0------------------------0-0-0-0-0-0-0--0--0-----------|
  . . . . . . .  .  .                        . . . . . . .  .  .

gtr 1
|--------------------------------------------------------------------------|
|--------------------------------------------------------------------------|
|--------------------------------------------------------------------------|
|--------------------------------------------------------------------------|
|-0-0-0-0-0-0-0--0--0------------------------0-0-0-0-0-0-0--0--0-----------|
|-0-0-0-0-0-0-0--0--0------------------------0-0-0-0-0-0-0--0--0-----------|
| . . . . . . .  .  .                        . . . . . . .  .  .           | 

|                                                                          |
|gtr 2                                                                     |
|--------------------------------------------------------------------------|
|--------------------------------------------------------------------------|
|--------------------------------------------------------------------------|
|--3p0---0-----3p0----0-----3p0---0-----3p0----0---------------------------|
|------0---0-0------0---0-0-----0---0-0------0---0-0-----------------------|
|--------------------------------------------------------------------------|


gtr 1+2 
x2
|--------------------------------------------------------------------------|
|--------------------------------------------------------------------------|
|--------------------------------------------------------------------------|
|--------------------------------------------------------------------------|
|-6/5-0-3--6/5-0-3-5-0-8-0-0-0-6/5-0-3-5-0-8-0--0-0-0----------------------|
|-6/5-0-3--6/5-0-3-5-0-8-0-0-0-6/5-0-3-5-0-8-0--0-0-0----------------------|
      .        .     .     . .     .     .      . .

gtr 1+2 
x2
|--------------------------------------------------------------------------|
|--------------------------------------------------------------------------|
|--------------------------------------------------------------------------|
|--------------------------------------------------------------------------|
|-6-5-0-3-0-6-5-0-3-5-0-8-0-0-0-6-5-0-3-5-0-8-0--0-0-0---------------------|
|-6-5-0-3-0-6-5-0-3-5-0-8-0-0-0-6-5-0-3-5-0-8-0--0-0-0---------------------|
  . . .   . . . .     .     . . . . .     .      . .
Song: When Darkness Falls
Artist: Killswitch Engage
Album: Freddy VS Jason Soundtrack
Tabbed by: Christian / silent_warrior_@hotmail.com

PM - Palm mute
<3> - Pinch harmonic + Vibrato
\ - Slide down
/ - Slide up
x - Mute string
~ - Vibrato

Tuning: C G C F A D


Intro/verse
|-----------------------------------------------------------------------------------------|
|-----------------------------------------------------------------------------------------|
|-----------------------------------------------------------------------------------------|
|--------------------------------------------8888-7777------------------------------------|
|4---3---5-4---4---3---5-4---4---3---5-4---4-7777-6666-4---3---5-4---4---3---5-4---4---3--|
|4-0-3-0-5-4-0-4-0-3-0-5-4-0-4-0-3-0-5-4-0-4-----------4-0-3-0-5-4-0-4-0-3-0-5-4-0-4-0-3-0|
PM -   -     -   -   -     -   -   -     -               -   -     -   -   -     -   -   -


|-----------------------------------------------------------------------------|
|-----------------------------------------------------------------------------|
|-----------------------------------------------------------------------------|
|-----------------------------------------------------------------------------|
|-5-4---4--0-0-4-3-<3>-12\--4---3---5-4---4---4---3---5-4---4---4-5-4-3-0-<3>-|
|-5-4-0-4--0-0-4-3-----12\--4-0-3-0-5-4-0-4---4-0-3-0-5-4-0-4---4-5-4-3-0-----|
PM    -    - - - -            -   -     -       -   -     -     - - - - -


|---------------------------------------------------------------|
|---------------------------------------------------------------|
|---------------------------------------------------------------|
|---------------------------------------------------------------|
|-4---3---5-4---4---------4---3---5-4---4---------4-5-4-3-0-----|
|-4-0-3-0-5-4-0-4-0-0-0-0-4-0-3-0-5-4-0-4-0-0-0-0-4-5-4-3-0-<3>-|
PM  -   -     -   - - - -   -   -     -   - - - - - - - - -       


Pre-Chorus
|--------------------------------------------------------------------------------------|
|--------------------------------------------------------------------------------------|
|-9/10-10-10--9/10-10-10--9/10-10-10--9/10-10-10--10\9-9-9--10\9-9-9--9/10-10-10--7-7--|
|--------------------------------------------------------------------------------------|
|-7/-8--8--8--7/-8--8--8--7/-8--8--8--7/-8--8--8---8\7-7-7---8\7-7-7--7/-8--8--8--5-5--|
|--------------------------------------------------------------------------------------|


|-----------------------------------------------------------------------------------------------------|
|-----------------------------------------------------------------------------------------------------|
|-12/14-14-14--12/14-14-14--14/17-17-17--14/17-17-17--14\12-12-12--14\12-12-12--12\7-7-7--7-7-7-7-7-7-|
|-----------------------------------------------------------------------------------------------------|
|-10/12-12-12--10/12-12-12--12/15-15-15--12/15-15-15--12\10-10-10--12\10-10-10--10\5-5-5--5-5-5-5-5-5-|
|-----------------------------------------------------------------------------------------------------|


Chorus - Guitar 1
|-------------------------------------------------------|
|-------------------------------------------------------|
|-3--3--3--5-----------5--3--3--3--5--------------------|
|-3--3--3--5--0--0--0--5--3--3--3--5--0--0--------------|
|-1--1--1--3--0--0--0--3--1--1--1--3--0--0--0-3-3-0-5-3-|
|-------------0--0--0-----------------0--0--0-3-3-0-5-3-|
PM                                          - - - - - -


Chorus - Guitar 2
|------------12------------------11-----|
|--------11------11----------10------10-|
|-9--10---------------9--10-------------|
|---------------------------------------|
|---------------------------------------|
|---------------------------------------|


Fill
|---------------------------------|
|---------------------------------|
|---------------------------------|
|---------------------------------|
|-4---3---5-4---4---4-5-4-3-0-<3>-|
|-4-0-3-0-5-4-0-4---4-5-4-3-0-----|
PM  -   -     -     - - - - -


Breakdown - Guitar 1
|--------------------------------|
|--------------------------------|
|--------------------------------|
|--------------------------------|
|-0-0-0-0-0-1-0--0-3-4-3-0-2-3-2-|
|-0-0-0-0-0-1-0--0-3-4-3-0-2-3-2-|
PM- - - - - - -  - - - - - - - -


Breakdown - Guitar 2
|------------------|
|------------------|
|------------------|
|------------------|
|------------------|
|-/////X-----------|


Both Guitars
|---------------------------------------------------------------|
|------------------------------------------------6h8p6----------|
|------------------------------------------------------8-7-5-7~-|
|---------------------------------------------------------------|
|-0-----0---1-0--0-3-4-3-0-2-3-2--0-----0---1-0-----------------|
|-0-0-0-0-0-1-0--0-3-4-3-0-2-3-2--0-0-0-0-0-1-0-----------------|
PM  - -   -      - - - - - - - -    - -   -      


|----------------------------------------------------------------|
|----------------------------------------------------------------|
|----------------------------------------------------------------|
|----------------------------------------------------------------|
|-0-----0---1-0--0-3-4-3-0-2-3-2--0-----0---1-0--0-4-5-4-0-3-4-3-|
|-0-0-0-0-0-1-0--0-3-4-3-0-2-3-2--0-0-0-0-0-1-0--0-4-5-4-0-3-4-3-|
PM  - -   -      - - - - - - - -    - -   -      - - - - - - - -


Fill - Guitar 1
|----------|
|----------|
|-3-3--5-5-|
|-3-3--5-5-|
|-1-1--3-3-|
|----------|


Fill - Guitar 2
|------------12-----|
|--------11------11-|
|-9--10-------------|
|-------------------|
|-------------------|
|-------------------|


Last note - Let ring
|-----|
|-----|
|-----|
|--8--|
|--8--|
|--8--|
-----------------------------------------------------------------------------
Tabbed by: Maizzi
Email: Maizzi_@hotmail.com

Tuning: C G C F A D


Intro / Bridge1  (4x)

e|-----------------------------------------------------|
B|-----------------------------------------------------|
G|-----------------------------------------------------|
D|------0-0-0-0-0-0-0-8-7--0-0-0-0-0-0-0-1-0-----------|
A|------0-0-0-0-0-0-0-6-5--0-0-0-0-0-0-0-1-0-----------|
E|-12\--0-0-0-0-0-0-0------0-0-0-0-0-0-0-1-0-----------|
          x x x x x x        x x x x x x       
e|--------------------------------------------------------|
B|--------------------------------------------------------|
G|--------------------------------------------------------|
D|-0-0-0-0-0-0-0-8-7p8p7-------8-10-----------------------|
A|-0-0-0-0-0-0-0---------7p8p7-8-10---------------------- |
E|-0-0-0-0-0-0-0---------------8-10-----------------------|
   x x x x x x x


Bridge2  (2x)

e|-------------------------------------------------|
B|-------------------------------------------------|
G|-------------------------------------------------|
D|-------------------------------------------------|
A|---5---7---8----5---7---8----5---7---8-----------|
E|-0---0---0----0---0---0----7---7---7-------------|
   x   x   x    x   x   x    x   x   x

e|------------------------------------------------------------------------|
B|------------------------------------------------------------------------|
G|------------------------------------------------------------------------|
D|------------------------------------------------------------10------10--|
A|---5---7---8----5---7---8----5---7---8----5---7---8-----7-8-----7-8-----|
E|-0---0---0----0---0---0----7---7---7----5---5---5-----------------------|
   x   x   x    x   x   x    x   x   x    x   x   x       x x     x x


Chorus  (2x)

e|-------------------------------------------------|
B|-------------------------------------------------|
G|-2-------------2-2-3-3------7----------7-7-8-8---|
D|-1--1-1-1-1-1--1-1-1-1---3--3-3-3-3-3--3-3-3-3---|
A|-1--1-1-1-1-1--1-1-1-1---3--3-3-3-3-3--3-3-3-3---|
E|-1--1-1-1-1-1--1-1-1-1---3--3-3-3-3-3--3-3-3-3---|
      x x x x x               x x x x x           
 
e|-------------------------------------------------|
B|-------------------------------------------------|
G|----------------7-7-8-8--------------------------|
D|---5-5-5-5-5-5--5-5-5-5--8-8-8-8-8-8--8-8-3-3----|
A|---5-5-5-5-5-5--5-5-5-5--8-8-8-8-8-8--8-8-3-3----|
E|---5-5-5-5-5-5--5-5-5-5--8-8-8-8-8-8--8-8-3-3----|
       x x x x x             x x x x x

Bridge 1 (4x)

Bridge 2 (2x)

Chorus   (2x)


Chorus 2 (2x)
e|--------------------------------------------------------------|
B|--------------------------------------------------------------|
G|-------3---2---0---3---2-----------8---7---5---8---7--5p7-----|
D|--1-1--------------------0-1--3-3-----------------------------|
A|--1-1---1---1---1----1---0-1--3-3----3---3---3---3------------|
E|--1-1---1---1---1----1---0-1--3-3----3---3---3---3------------|
      x   x   x   x    x          x    x   x

e|--------------------------------------------------|
B|--------------------------------------------------|
G|--------------------------------------------------|
D|-------8--7--8------8----8--7----3-3--------------|
A|--5---5--5--5---5---8---8--8--8--3-3--------------|
E|--5--5--5--5---5----8--8--8--8---3-3--------------|
       xx xx xx  xx      xx xx

Slow part
e|-----------------------------------------------|
B|-----------------------------------------------|
G|-----------------------------------------------|
D|--1---3---5---8-----1---3---5---8-8-8----------|
A|--1---3---5---8-----1---3---5---8-8-8----------|
E|--1---3---5---8-----1---3---5---8-8-8----------|

Then chorus 2 till fade out





| /  slide up
| \  slide down
| h  hammer-on
| p  pull-off
| ~  vibrato
| +  harmonic
| x  Mute note
Band-Killswitch Engage
Song-Inhale
Album-The End Of Heartache
Instrument-Guitar

Tuning- CGCFAD

This is the first instrumental on the album and the better one is my
opinion. This song is just beautiful. Just figure out the strumming patterns.

Riff 1 (Gtr.1)
D|-3--3-3-3--3---3--3-3-3--3---3--3-3-3--3---3--3-3-3--3-|
A|-3--3-3-3--3---3--3-3-3--3---3--3-3-3--3---3--3-3-3--3-|
F|-2--2-2-2--2---0--0-0-0--0---2--2-2-2--2---0--0-0-0--0-|
C|-0--0-0-0--0---2--2-2-2--2---0--0-0-0--0---------------|
G|---------------3--3-3-3--3-----------------------------|
C|-------------------------------------------------------|

Riff 1 (Gtr.2)
D|---------------------------------------------------------|
A|-8-8-10-8-8--8-8-12-10-8--8-8-10-8-12-10-8--7-7h8-3-3-3--|
F|--0-0-0-0-----0-0-0-0-0----0-0-0-0-----------0---0-0-0-0-|
C|---------------------------------------------------------|
G|---------------------------------------------------------|
C|---------------------------------------------------------|

Riff 2 (Gtr.2)
D|-3~-------|
A|---3~-----|
F|-----2~---|
C|----------|
G|----------|
C|----------|
Author/Artist: Killswitch Engage
Title: Breathe Life
Album: The End of Heartache
Transcribed by: Matt Kent
Email: mek8283@rit.edu

Credits: This is based on the first tab for this song that showed up on MxTabs.
I cleaned up a few parts and added the second guitar and bridge. I think this
is pretty much everything except the solo. Enjoy!


Intro/Verse:
d|----------------------------------------------------------------------------|
A|----------------------------------------------------------------------------|
F|----------------------------------------------------------------------------|
C|--x/-----------0-0-0-000----------------------------------------------------|
G|--x/----5h6p5--0-0-0-000--10h12p10---8h10p8---6h8p6--5h6p5------------------|
C|--x/-----------0-0-0-000-----------0--------0-------------------------------|
                 pm.......           .        .

d|----------------------------------------------------------------------------|
A|----------------------------------------------------------------------------|
F|----------------------------------------------------------------------------|
C|--0-0-0-000-----------------------------------------------------------------|
G|--0-0-0-000-----------------------------------------------------------------|
C|--0-0-0-000--5h7p5-0-3h5p3-0-1h3p1-0h1p0------------------------------------|
    pm.......        .       .
[ Tab from: http://www.guitaretab.com/k/killswitch-engage/57172.html ]
d|----------------------------------------------------------------------------|
A|----------------------------------------------------------------------------|
F|----------------------------------------------------------------------------|
C|--0-0-0-000-----------------------------------------------------------------|
G|--0-0-0-000--10h12p10---8h10p8---6h8p6--5h6p5-------------------------------|
C|--0-0-0-000-----------0--------0--------------------------------------------|
    pm.......           .        .

(fill - guitar one)
d|----------------------------------------------------------------------------|
A|----------------------------------------------------------------------------|
F|----------------------------------------------------------------------------|
C|--0-0-0-000---------10-8p7-8-7----------------------------------------------|
G|--0-0-0-000--7h8-10------------10p7-----------------------------------------|
C|--0-0-0-000-----------------------------------------------------------------|
    pm.......

(fill - guitar two)
d|----------------------------------------------------------------------------|
A|----------------------------------------------------------------------------|
F|----------------------------------------------------------------------------|
C|--0-0-0-000---------8-8-----------------------------------------------------|
G|--0-0-0-000--7h8-10-----10p8-10-8-8p7---------------------------------------|
C|--0-0-0-000-----------------------------------------------------------------|
    pm.......


Pre-Chorus:
d|----------------------------------------------------------------------------|
A|----------------------------------------------------------------------------|
F|---------------------------------3-------5----------------------------------|
C|--000-000----000-000----000-0-0--3--0-0--5--0-0-----------------------------|
G|--000-000----000-000----000-0-0--1--0-0--3--0-0-----------------------------|
C|--000-000----000-000----000-0-0-----0-0-----0-0-----------------------------|
    pm...........................     . .     . .


Chorus:
d|----------------------------------------------------------------------------|
A|----------------------------------------------------------------------------|
F|----------------------------------------------------------------------------|
C|--0----10--8----7--5----3--0--00-00-0--0--00-00-0---------------------------|
G|--0----10--8----7--5----3--0--00-00-0--0--00-00-0---------------------------|
C|--0----10--8----7--5----3--0--00-00-0--0--00-00-0---------------------------|
                                pm...       pm...

Bridge:
d|----------------------------------------------------------------------------|
A|----------------------------------------------------------------------------|
F|----------------------------------------------------------------------------|
C|--1p0-0-0-0-0--00--0--5-5/7-7/8-8\5----1p0-0-0-0-0--00--0--1-1/3-3/4-4\1----|
G|--1p0-0-0-0-0--00--0--3-3/5-5/6-6\3----1p0-0-0-0-0--00--0--1-1/3-3/4-4\1----|
C|--1p0-0-0-0-0--00--0-------------------1p0-0-0-0-0--00--0--1-1/3-3/4-4\1----|
        pm.....      .                       pm.....      .

d|----------------------------------------------------------------------------|
A|----------------------------------------------------------------------------|
F|----------------------------------------------------------------------------|
C|--1p0-0-0-0-0--00--0--5-5/7-7/8-8\5----1p0-0-0-0-0--00--0--0h1-1------------|
G|--1p0-0-0-0-0--00--0--3-3/5-5/6-6\3----1p0-0-0-0-0--00--0--0h1-1-<3>--------|
C|--1p0-0-0-0-0--00--0-------------------1p0-0-0-0-0--00--0--0h1-1------------|
        pm.....      .                       pm.....      .      .
Killswitch Engage
"The End of Heartache" from The End of Heartache - song #7
Tabbed by: shredyr
E-mail: hollowseedaxeman@hotmail.com
Any comments or requests, please e-mail me...

Tuning: C G C F A D (low to high) thicker strings will help a lot here, i suggest 12-56 ;)
bpm:124

 intro
lightly palm mute the open notes
D|--------------------------------------------------------------|
A|------------------------------------------------8-------------|
F|---10p9-------10p9-------10p9-------10p9-----------9------9---|
C|-----------0----------0----------0-----------0--------10------|
G|--------------------------------------------------------------|
C|--------------------------------------------------------------|

the second guitar plays these chords, let them ring out
D|--------------------------------------------------------------|
A|--------------------------------------------------------------|
F|--------------------------------------------------------------|
C|----0------------------------------------------10-------------|
G|----0------------------------------------------10-------------|
C|----0------------------------------------------10-------------|

 intro part 2/verse riff 1
these are the first two sequences... palm mute the open chords
D|----------------------------------------------|-------------------------------------------|
A|----------------------------------------------|-------------------------------------------|
F|----------------------------------------------|-------------------------------------------|
C|------------------------------9/10\9--10/12---|------------------------------9/10\9--10---|
G|---0-0-0-0---0--0-0-0-0-------7/-8\7--10/12---|---0-0-0-0---0--0-0-0-0-------7/-8\7--10---|
C|---0-0-0-0---0--0-0-0-0---------------10/12---|---0-0-0-0---0--0-0-0-0---------------10---|

...then play this for the third and fourth times... palm mute the eights
D|----------------------------------------------|-----------------------------------------------|
A|----------------------------------------------|-----------------------------------------------|
F|----------------------------------------------|-----------------------------------------------|
C|------------------------------9/10\9--10/12---|-----------------------------------8/10--10\---|
G|---8-8-8-8---8--8-8-8-8-------7/-8\7--10/12---|---8-8-8-8---8--8-8-8-8------------8/10--10\---|
C|---8-8-8-8---8--8-8-8-8---------------10/12---|---8-8-8-8---8--8-8-8-8------------8/10--10\---|

 fill riff 1/verse riff 2
this is the cool depths of hell sounding riff
D|-------------------------------------------------------------------------------|
A|-------------------------------------------------------------------------------|
F|-------------------------------------------------------------------------------|
C|-------------------------------------------------------------------------------|
G|---0-0-0-0---0--0-0-0-0-0-0---0--0-0-0-0-0-0---0-0-0---------------------------|
C|---0-0-0-0---0--0-0-0-0-0-0---0--0-0-0-0-0-0---0-0-0--7h10p7h10p7--6h9p6h9p6---|

and this is the second part of it
D|-------------------------------------------------------------------------------|
A|-------------------------------------------------------------------------------|
F|-------------------------------------------------------------------------------|
C|-------------------------------------------------------------------------------|
G|---0-0-0-0---0--0-0-0-0-0-0---0--0-0-0-0-0-0---0-0-0--5h8p5h8p5--4h7p4h7p4-----|
C|---0-0-0-0---0--0-0-0-0-0-0---0--0-0-0-0-0-0---0-0-0---------------------------|

then end it with this
D|------------------|
A|------------------|
F|------------------|
C|------8/10--10\---|
G|------8/10--10\---|
C|------8/10--10\---|

 chorus riff
D|------------------------------------------------------------------------------------------------|
A|------------------------------------------------------------------------------------------------|
F|---------10-10----10-10----10-10----10-10-10------------9--9-----9--9-----9--9-----9--9--9--9---|
C|---8-8-8-10-10--8-10-10--8-10-10--8-10-10-10--8--7-7-7-10-10--7-10-10--7-10-10--7-10-10-10-10---|
G|---8-8-8--8--8--8--8--8--8--8--8--8--8--8--8--8--7-7-7--7--7--7--7--7--7--7--7--7--7--7--7--7---|
C|---8-8-8--8--8--8--8--8--8--8--8--8--8--8--8--8--7-7-7--7--7--7--7--7--7--7--7--7--7--7--7--7---|

D|------------------------------------------------------------------------------|
A|------------------------------------------------------------------------------|
F|------------------------------------------------------------------------------|
C|---5-5-5-5-5-5-5-5-5-5-5-5-5-7-5-0---8-8-8-8-8-8-8-8-10-10-10-10-10-12-10-7---|
G|---5-5-5-5-5-5-5-5-5-5-5-5-5-7-5-0---8-8-8-8-8-8-8-8-10-10-10-10-10-12-10-7---|
C|---5-5-5-5-5-5-5-5-5-5-5-5-5-7-5-0---8-8-8-8-8-8-8-8-10-10-10-10-10-12-10-7---|

 fill riff 2
THIS IS ABSOLUTELY CORRECT!! oh yeah, and lightly palm mute the first time through
D|-----------------------------------------------------------------------|
A|-----------------------------------------------------------------------|
F|-----------------------------------------------------------------------|
C|---0-0-10p0h8p0h10p0h8p0h7p0h8p0h7p0h5p0h7p0h5p0h3p0h2p0h3p0h2p0h3p0---|
G|-----------------------------------------------------------------------|
C|-----------------------------------------------------------------------|

the second guitar plays {verse riff 1} and then hits this pinch harmonic
D|----------------|
A|----------------|
F|----------------|
C|----------------|
G|----------------|
C|------5*~-------|

 heavy breakdown riff
this is mostly palm muted, you can listen for the exact timing
D|--------------------------------------------------------------------|
A|--------------------------------------------------------------------|
F|--------------------------------------------------------------------|
C|------------------------------------------------0-1-----------0-1---|
G|-----------------------0------0---0-0-0----0-0--0-1--0-0-0-0--0-1---|
C|---5h6p5--0--5--0--3~--0------0---0-0-0----0-0--0-1--0-0-0-0--0-1---|

 clean fill riff
lightly palm mute the open notes
D|----------------------------------------------------------------------|
A|----------------------------------------------------------------------|
F|-----3---3---3---3---3---3---3---3----2---2---2---2---2---2---2---2---|
C|---0---0---0---0---0---0---0---0----0---0---0---0---0---0---0---0-----|
G|----------------------------------------------------------------------|
C|----------------------------------------------------------------------|

D|------------------------------------------------------8---8---8---8---|
A|------------------------------------------------------x---x---x---x---|
F|-----0---0---0---0---0---0---0---0----3---3---3---3---5---5---5---5---|
C|---0---0---0---0---0---0---0---0----0---0---0---0---0---0---0---0-----|
G|----------------------------------------------------------------------|
C|----------------------------------------------------------------------|

 finishing riff
palm mute this one
D|--------------------------|
A|--------------------------|
F|--------------------------|
C|---0-0-0-0---0--0-0-0-0---|
G|---0-0-0-0---0--0-0-0-0---|
C|---0-0-0-0---0--0-0-0-0---|

 /  slide up
 \  slide down
 h  hammer-on
 p  pull-off
 ~  vibrato
 *  pinch harmonic
 x  Mute note

Well there ya go, this is all of the riffs, peice them in where there are gaps and enjoy!
I will have more tabs from their new cd on here soon hopefully.
Killswitch is one of my favorite bands and I look for them to do big things in the future...
     Title : Declaration
        Artist : Killswitch Engage
         Album : The End of Heartache
   Record Label: Road Runner Records
           Date: 7/14/2004
Transcribed by : sumpm1 
        Tuning : B F# D A E B

 Release Notes : This baby was pretty tough. This is my first tab submitted
                 woohoo.For correct timings, listen to song, I am quite sure
                 that everything is right. As for the tuning, all of the
                 other Killswitch Engage tabs say that they use a Drop C
                 tuning, but I can attest for sure that there are plenty of
                 their songs that go lower than C. This songs is in B.
                 I have never seen KE play live, so I can't say what their
                 actual tuning is, but I have never seen a picture shoot of
                 them, including their newest video with 7 string guitars.
                 It's just a 6 string with standard tuning very low at B.
================================================================================


 Gtr I
 |       |       |       |        |       |       |       |
|--------------------------------|--------------------------------|
|--------------------------------|--------------------------------|
|--5---5-6-8-6-5-6-5-------------|--5---5-6-8-6-5-6-5-------------|
|--------------------8-6-8-6-5---|--------------------8-6-8-6-5---|
|8---8-------------------------8-|7---7-------------------------7-|
|--------------------------------|--------------------------------|
 Gtr II
 |       |       |       |        |       |       |       |
|--------------------------------|--------------------------------|
|--------------------------------|--------------------------------|
|--------------------------------|--------------------------------|
|--------------------------------|5-------------------------------|
|3-------------------------------|3-------------------------------|
|1-------------------------------|3-------------------------------|



 Gtr I
 |       |       |       |        |       |       |       |
|--------------------------------|--------------------------------|
|--------------------------------|----------------8-9-6-8-6-5-----|
|--5---5-6-8-6-5-6-5-------------|--5---5-6-8-6-5-------------6-5-|
|--------------------8-6-8-6-5---|--------------------------------|
|8---8-------------------------8-|7---7---------------------------|
|--------------------------------|--------------------------------|
|Gtr II
 |       |       |       |        |       |       |       |
|--------------------------------|--------------------------------|
|--------------------------------|--------------------------------|
|--------------------------------|--------------------------------|
|--------------------------------|5-------------------------------|
|3-------------------------------|3-------------------------------|
|1-------------------------------|3-------------------------------|



 Gtr I
 |       |       |       |        |       |       |       |
|--------------------------------|--------------------------------|
|--------------------------------|--------------------------------|
|--------------------------------|--------------------------------|
|--------------------------------|--2---2-------------------------|
|--3---3-4-6-4-3---3-------------|--2---2-4-6-4-3---3-------------|
|1---1-----------6---6-4-6-4-3-1-|0---0-----------6---6-4-6-4-3-0-|
 Gtr II
 |       |       |       |        |       |       |       |
|--------------------------------|--------------------------------|
|--------------------------------|--------------------------------|
|--------------------------------|--------------------------------|
|--------------------------------|--------------------------------|
|3-3-----3-3-----------------2-2-|----2-2-------------------------|
|1-1-----1-1-----------------0-0-|----0-0-------------------------|



 Gtr I
 |       |       |       |        |       |       |       |
|--------------------------------|--------------------------------|
|--------------------------------|--------------------------------|
|--------------------------------|--------------------------------|
|--------------------------------|--2---2---------5-6-3-5-3-2-----|
|--3---3-4-6-4-3---3-------------|--2---2-4-6-4-3-------------4-3-|
|1---1-----------6---6-4-6-4-3-1-|0---0---------------------------|
Gtr II
 |       |       |       |        |       |       |       |
|--------------------------------|--------------------------------|
|--------------------------------|--------------------------------|
|--------------------------------|--------------------------------|
|--------------------------------|--------------------------------|
|3-3-----3-3-----------------2-2-|----2-2-------------------------|
|1-1-----1-1-----------------0-0-|----0-0-------------------------|



 Gtr I
 |       |       |       |        |       |       |       |
|--------------------------------|--------------------------------|
|--------------------------------|--------------------------------|
|1---------------------1---3---1-|--------------------------------|
|--------------------------------|--------------------------------|
|--------------------------------|----------------------1---3-----|
|--1-1-1-1-1-1-1-1-1-------------|--1-1-1-1-1-1-1-1-1-----------4-|



 Gtr I
 |       |       |       |        |       |       |       |
|--------------------------------|--------------------------------|
|--------------------------------|--------------------------------|
|1---------------------1---3---1-|--------------------------------|
|--------------------------------|--------------------------------|
|--------------------------------|--------------------------------|
|--1-1-1-1-1-1-1-1-1-------------|--------------------------------|



 Gtr I
 |       |       |       |        |       |       |       |
|--------------------------------|--------------------------------|
|--------------------------------|--------------------------------|
|----3-6-3-----6-9-6-------------|--------------------------------|
|--------------------------------|--------------------------------|
|1-4-------4-7-------7-4-1-------|--------------------------------|
|--------------------------------|--------------------------------|
 Gtr II
 |       |       |       |        |       |       |       |
|----------------3---------------|--------------------------------|
|------5-------2---2-------------|--------------------------------|
|----3---3-----------3-1-3-------|--------------------------------|
|----------3-6-------------------|--------------------------------|
|4-7-----------------------------|--------------------------------|
|--------------------------------|--------------------------------|




 Gtr I
 |       |       |       |        |       |       |       |
|--------------------------------|--------------------------------|
|--------------------------------|--------------------------------|
|--------------------------------|--------------------------------|
|3-3-3-3-3-3-3-3-5-5-5-5-6-6-6-6-|3-3-3-3-3-3-3-3-5-5-5-5-6-6-6-6-|
|--------------------------------|--------------------------------|
|--------------------------------|--------------------------------|
 Gtr II
 |       |       |       |        |       |       |       |
|--------------------------------|--------------------------------|
|--------------------------------|--------------------------------|
|--------------------------------|--------------------------------|
|--------------------------------|--------------------------------|
|1-1-1-1-1-1-1-1-1-1-1-1-1-1-1-1-|3-3-3-3-3-3-3-3-3-3-3-3-3-3-3-3-|
|--------------------------------|--------------------------------|



 Gtr I
 |       |       |       |        |       |       |       |
|--------------------------------|--------------------------------|
|--------------------------------|--------------------------------|
|--------------------------------|3-3-3-3-3-3-3-3-----------------|
|3-3-3-3-3-3-3-3-5-5-5-5-6-6-6-6-|----------------5-5-5-5-6-6-6-6-|
|--------------------------------|--------------------------------|
|--------------------------------|--------------------------------|
 Gtr II
 |       |       |       |        |       |       |       |
|--------------------------------|--------------------------------|
|--------------------------------|--------------------------------|
|--------------------------------|--------------------------------|
|--------------------------------|--------------------------------|
|4-4-4-4-4-4-4-4-4-4-4-4-4-4-4-4-|6-6-6-6-6-6-6-6-6-6-6-6-6-6-6-6-|
|--------------------------------|--------------------------------|



 Gtr I
 |       |       |       |        |       |       |       |
|--------------------------------|--------------------------------|
|--------------------------------|--------------------------------|
|--------------------------------|--------------------------------|
|3-------3-------5-------6-------|3-------3-------5-------6-------|
|--1-1-1---1-1-1---1-1-1---1-1-1-|--3-3-3---3-3-3---3-3-3---3-3-3-|
|--------------------------------|--------------------------------|
Gtr II
 |       |       |       |        |       |       |       |
|--------------------------------|--------------------------------|
|--------------------------------|--------------------------------|
|--------------------------------|--------------------------------|
|--------------------------------|--------------------------------|
|1-1-1-1-1-1-1-1-1-1-1-1-1-1-1-1-|3-3-3-3-3-3-3-3-3-3-3-3-3-3-3-3-|
|--------------------------------|--------------------------------|



 Gtr I
 |       |       |       |        |       |       |       |
|--------------------------------|--------------------------------|
|--------------------------------|--------------------------------|
|--------------------------------|3-------3-----------------------|
|3-------3-------5-------6-------|----------------5-------6-------|
|--4-4-4---4-4-4---4-4-4---4-4-4-|--6-6-6---6-6-6---6-6-6---6-6-6-|
|--------------------------------|--------------------------------|
 Gtr II
 |       |       |       |        |       |       |       |
|--------------------------------|--------------------------------|
|--------------------------------|--------------------------------|
|--------------------------------|--------------------------------|
|--------------------------------|--------------------------------|
|4-4-4-4-4-4-4-4-4-4-4-4-4-4-4-4-|6-6-6-6-6-6-6-6-6-6-6-6-6-6-6-6-|
|--------------------------------|--------------------------------|



 Gtr I
 |       |       |       |        |       |       |       |
|--------------------------------|--------------------------------|
|--------------------------------|--------------------------------|
|--------------------------------|--------------------------------|
|3-------3-------5-------6-------|3-------3-------5-------6-------|
|--1-1-1---1-1-1---1-1-1---1-1-1-|--3-3-3---3-3-3---3-3-3---3-3-3-|
|--------------------------------|--------------------------------|
 Gtr II
 |       |       |       |        |       |       |       |
|--------------------------------|--------------------------------|
|------------------------1-------|------------------------1-------|
|1-------1-------3---------------|1-------1-------3---------------|
|--------------------------------|--------------------------------|
|--1-1-1---1-1-1---1-1-1---1-1-1-|--3-3-3---3-3-3---3-3-3---3-3-3-|
|--------------------------------|--------------------------------|



 Gtr I
 |       |       |       |        |       |       |       |
|--------------------------------|--------------------------------|
|--------------------------------|--------4-------1-------1-------|
|--------------------------------|3-------------------------------|
|3-------3-------5-------6-------|1-1-1-1---1-1-1---2-2-2---2-2-2-|
|--4-4-4---4-4-4---4-4-4---4-4-4-|--------------------------------|
|--------------------------------|--------------------------------|
 Gtr II
 |       |       |       |        |       |       |       |
|--------------------------------|--------------------------------|
|------------------------1-------|--------4-------1-------1-------|
|1-------1-------3---------------|3-------------------------------|
|--------------------------------|1-1-1-1---1-1-1---2-2-2---2-2-2-|
|--4-4-4---4-4-4---4-4-4---4-4-4-|--------------------------------|
|--------------------------------|--------------------------------|



 Gtr I
 |   |   |   |    |   |   |   |    |   |   |   |    |   |   |   |
|----------------|----------------|----------------|----------------|
|----------------|----------------|------------1-1-|----------------|
|1-1-1-1-1-1-1-1-|1-1-1-1-1-1-1-1-|1-1-1-1-3-3-----|----------------|
|----------------|----------------|----------------|2-2-2-2-3-3-5-5-|
|----------------|----------------|----------------|----------------|
|----------------|----------------|----------------|----------------|
 Gtr II
 |   |   |   |    |   |   |   |    |   |   |   |    |   |   |   |
|----------------|----------------|----------------|----------------|
|----------------|----------------|----------------|----------------|
|----------------|----------------|----------------|----------------|
|----------------|2---------------|6---------------|5---------------|
|3---------------|3---------------|4---------------|3---------------|
|1---------------|----------------|----------------|----------------|



 Gtr I
 |   |   |   |    |   |   |   |
|----------------|----------------|
|--------1-1-----|----------------|
|1-1-1-1-----3-3-|----------------|
|----------------|2-2-2-2-3-3-5-5-|
|----------------|----------------|
|----------------|----------------|
 Gtr II
 |   |   |   |    |   |   |   |
|----------------|----------------|
|----------------|----------------|
|----------------|----------------|
|6---------------|5---------------|
|4---------------|3---------------|
|----------------|----------------|
Killswitch Engage - World ABlaze

Drop C Tuning

PM - Palm mute
/ - Slide up
\ - Slide down
p - Pull off
% - Rest



Intro Guitar 1
|-------------------------------------------------|
|-------------------------------------------------|
|-7-7---------7-7---------6-6---------6-6---------|
|-------------------------------------------------|
|-5-5---------5-5---------4-4---------4-4---------|
|-----2-0-2-0-----2-0-2-0-----1-0-1-0-----1-0-1-0-|
PM    . . . .     . . . .     . . . .     . . . .

|-----------------------------------------------------|
|-----------------------------------------------------|
|-10-10---------10-10---------9-9---------9-9---------|
|-----------------------------------------------------|
|--8--8----------8--8---------7-7---------7-7---------|
|-------2-0-2-0-------2-0-2-0-----1-0-1-0-----1-0-1-0-|
PM      . . . .       . . . .     . . . .     . . . .


Intro Guitar 2
|---------------------------------------------------------------------------|
|---------------------------------------------------------------------------|
|-7777777777777--6666666666666--10101010101010101010-12-12-12-12-9999999999-|
|---------------------------------------------------------------------------|
|-5555555555555--4444444444444---8-8-8-8-8-8-8-8-8-8-10-10-10-10-7777777777-|
|---------------------------------------------------------------------------|


Verse
|-------------------------------------------------|
|-------------------------------------------------|
|-7-7---------7-7---------6-6---------6-6---------|
|-------------------------------------------------|
|-5-5---------5-5---------4-4---------4-4---------|
|-----2-0-2-0-----2-0-2-0-----1-0-1-0-----1-0-1-0-|
PM    . . . .     . . . .     . . . .     . . . .

|-------------------------------------------------|
|-------------------------------------------------|
|-7-7---------6-6---------7-7---------7-7---------|
|-------------------------------------------------|
|-5-5---------4-4---------5-5---------5-5---------|
|-----2-0-2-0-----2-0-2-0-----1-0-1-0-----1-0-1-0-|
PM    . . . .     . . . .

|-------------------------------------------------|
|-------------------------------------------------|
|-6-6---------6-6---------7-7---------6-6---------|
|-------------------------------------------------|
|-4-4---------4-4---------5-5---------4-4---------|
|-----2-0-2-0-----2-0-2-0-----1-0-1-0-----1-0-1-0-|
PM    . . . .     . . . .     . . . .     . . . .

|-----------------------------------------------------|
|-----------------------------------------------------|
|-10-10---------10-10---------9-9---------9-9---------|
|-----------------------------------------------------|
|--8--8----------8--8---------7-7---------7-7---------|
|-------2-0-2-0-------2-0-2-0-----1-0-1-0-----1-0-1-0-|
PM      . . . .       . . . .     . . . .     . . . .

|-------------------------------------------------------|
|-------------------------------------------------------|
|-10-10---------9-9---------10-10---------10-10---------|
|-------------------------------------------------------|
|--8--8---------7-7----------8--8----------8--8---------|
|-------2-0-2-0-----2-0-2-0-------1-0-1-0-------1-0-1-0-|
PM      . . . .     . . . .       . . . .       . . . .

|---------------------------------------------------|
|---------------------------------------------------|
|-9-9---------9-9---------10-10---------9-9---------|
|---------------------------------------------------|
|-7-7---------7-7----------8--8---------7-7---------|
|-----2-0-2-0-----2-0-2-0-------1-0-1-0-----1-0-1-0-|
PM    . . . .     . . . .       . . . .     . . . .

|--------------------------------------------------------------------|
|--------------------------------------------------------------------|
|--------------------------------------------------------------------|
|--------------------------------------------------------------------|
|-4-1-------1-4-------4-1-------1-4-------4-1------------3-5/7\5-3/5-|
|-4-1-0-0-0-1-4-0-0-0-4-1-0-0-0-1-4-0-0-0-4-1-0-0-0-0-0--------------|
PM    . . .     . . .     . . .     . . .     . . . . .

|--------------------------------------------------------------------|
|--------------------------------------------------------------------|
|--------------------------------------------------------5-7/9\7-5/7-|
|--------------------------------------------------------------------|
|---------------%---------------1-4----------%-----------------------|
|-------------------------------1-4----------------------------------|


|--------------------------------------------------------------------|
|--------------------------------------------------------------------|
|--------------------------------------------------------------------|
|--------------------------------------------------------------------|
|-4-1-0-0-0-1-4-0-0-0-4-1-0-0-0-1-4-0-0-0-4-1-0-0-0-0-0--3-5/7\5-3/5-|
|-4-1-0-0-0-1-4-0-0-0-4-1-0-0-0-1-4-0-0-0-4-1-0-0-0-0-0--------------|
PM    . . .     . . .     . . .     . . .     . . . . .

|--------------------------------------------------------------------|
|--------------------------------------------------------------------|
|--------------------------------------------------------5-7/9\7-5/7-|
|--------------------------------------------------------------------|
|-4-1-0-0-0-1-4-0-0-0-4-1-0-0-0-1-4-0-0-0-4-1-0-0-0-0-0--------------|
|-4-1-0-0-0-1-4-0-0-0-4-1-0-0-0-1-4-0-0-0-4-1-0-0-0-0-0--------------|
PM    . . .     . . .     . . .     . . .     . . . . .

|--------------------------------------------------------------------|
|--------------------------------------------------------------------|
|--------------------------------------------------------------------|
|--------------------------------------------------------------------|
|-4-1---%---1-4---%---4-1---%---1-4---%---4-1--%--0------3-5/7\5-3/5-|
|-4-1-------1-4-------4-1-------1-4-------4-1-----0-0-0--------------|
PM                                                  . .


|--------------------------------------------------------------------|
|--------------------------------------------------------------------|
|--------------------------------------------------------5-7/9\7-5/7-|
|--------------------------------------------------------------------|
|-4-1---%---1-4---%---4-1---%---1-4---%---4-1--%--0------------------|
|-4-1-------1-4-------4-1-------1-4-------4-1-----0-0-0--------------|
PM                                                  . .

|-----------------------------------------|
|-----------------------------------------|
|-----------------------------------------|
|-----------------------------------------|
|-000-0-0-0-000-0-0-0-000-0-0-0-000-0-0-0-|
|-000-0-0-0-000-0-0-0-000-0-0-0-000-0-0-0-|
PM... . . . ... . . . ... . . . ... . . .


Guitar 1
|-----------------------------------------------|
|-----------------------10----------10----------|
|--------------------------10----10----10----10-|
|-----------------------------10----------10----|
|-0------0--0-0------0--------------------------|
|-0--0-0-0--0-0--0-0-0--------------------------|
PM   . .         . . 

Guitar 2
|-----------------------------------|
|-----------------------------------|
|-----------------------5------3----|
|-----------------------5------3----|
|-0------0--0-0------0--3------1----|
|-0--0-0-0--0-0--0-0-0--------------|
PM   . .         . . 

Guitar 1
|-----------------------------------------------|
|-----------------------10----------10----------|
|--------------------------10----10----10----10-|
|-----------------------------10----------10----|
|-0------0--0-0------0--------------------------|
|-0--0-0-0--0-0--0-0-0--------------------------|
PM   . .         . . 

Guitar 2
|-----------------------------------|
|-----------------------------------|
|-----------------------------------|
|-----------------------------------|
|-0------0--0-0------0---5-----1----|
|-0--0-0-0--0-0--0-0-0---5-----1----|
PM   . .         . . 

Chorus Guitar 1
|--------------------------------------------|
|--------------------------------------------|
|--------------------------------------------|
|--------------------------------------------|
|-5---5---3-5-5/8-7-5--5---3---3-5-5/8-7-5-5-|
|--------------------------------------------|


Chorus Guitar 1
|------------------|
|------------------|
|------5-----3-----|
|------5-----3-----|
|-0----3-----1-----|
|-0----------------|



Chorus Guitar 1
|--------------------------------------------|
|--------------------------------------------|
|--------------------------------------------|
|--------------------------------------------|
|-5---5---3-5-5/8-7-5--5---3---3-5-5/8-7-5-5-|
|--------------------------------------------|


Chorus Guitar 2
|--------------------------------------------|
|--------------------------------------------|
|--------------------------------------------|
|-3---3---2-3-3/6-5-3--3---2---2-3-3/6-5-3-3-|
|--------------------------------------------|
|--------------------------------------------|


|--------------------------------------------------------------------|
|--------------------------------------------------------------------|
|------------5--3--2--------11--9--8---------------------------------|
|------------5--3--2--------11--9--8---------------------------------|
|-0--0--0-0--3--1--0-0-0-0---9--7--6--0-0-0--5p3p0---5p3p0-----------|
|-0--0--0-0----------0-0-0------------0-0-0--------6-------6-5-3-2-3-|
PM      . .          . . .            . . .


|--------------------------------------------------|
|--------------------------------------------------|
|---------7-------5---3------------7---------------|
|---------7-------5---3------------7---------------|
|-0---0---5---0---3---1----0---0---5---0---5---1---|
|-0-0-0---0-0-0------------0-0-0---0-0-0---5---1---|
PM  .       .                .       .


Tuning- DGCFAD

Just repeat these riffs as many times as needed.

Gtr.1
|-5-------5-------5-------5--------|
|---6---6---6---6---6---6---6---6--|
|-----7-------7-------7-------7---*|
|---------------------------------*|
|----------------------------------|
|----------------------------------|

Gtr.2
|---8--6--5---6-5--3---5--3--0--1--3--5--|
|--10--8--6---8-6--5---6--5--1--3--5--6--|
|-----------------------------------------|
|-----------------------------------------|
|-----------------------------------------|
|-----------------------------------------|

Gtr.2 (Con't)
|---8--6--5---6--5--3---5--6---8--10-10-10--|
|--10--8--6---8--6--5---6--8--10--11-11-11--|
|-------------------------------------------|
|-------------------------------------------|
|-------------------------------------------|
|-------------------------------------------|
Band: Killswitch Engage
Album: The End Of Heartache
Song: Hope Is...
Instrument-Guitar

Tuning- CGCFAD

~ -Let note ring
\ -Slide up
/ -Slide down

I know there are octaves in the chorus. Im working on that now.

Intro (let notes ring)
|--------------------|
|--------------------|
|--------------------|
|-10~---7~---3~---1~-|
|-8~----7~---3~---1~-|
|-8~----7~---3~---1~-|

Intro 2
|---------------------------------------------------------------|
|---------------------------------------------------------------|
|---------------------------------------------------------------|
|---------7-----5/7-------------8-----7-------------------------|
|-0-------5-----3/5-------------6-----5-----6-----5-------------|
|-0-0-0-0---0-0-----0-0-0-0-0-0---0-0---0-0-6-0-0-5-0-0-3-5-3-0-|
PM  . . .   . .     . . . . . .   . .   . .   . .   . . . . . .

Intro 2 (Gtr.2) (play after playing above riff twice)
|---------------------------------------------------------------|
|---------------------------------------------------------------|
|---------7-----5/7-------------8-----7-------------------------|
|---------x-----x-x-------------x-----x-------------------------|
|-0-------5-----3/5-------------6-----5-----6-----5-------------|
|-0-0-0-0---0-0-----0-0-0-0-0-0---0-0---0-0-6-0-0-5-0-0-3-5-3-0-|
PM  . . .   . .     . . . . . .   . .   . .   . .   . . . . . .

Verse
|--------------------------------------------------------------|
|--------------------------------------------------------------|
|--------------------------------------------------------------|
|--------------------------3--5--------------------------3-----|
|-1-3-2-3-1-3-0-3-1-3-2-3--1--3-1-3-2-3-1-3-0-3-1-3-2-3--1---1-|
|-1-3-2-3-1-3-0-3-1-3-2-3-0--0--1-3-2-3-1-3-0-3-1-3-2-3-0--0-1-|
PM. . . . . . . . . . . . .  .  . . . . . . . . . . . . .  .

Pre-Chorus
|--------------------------------------------------------|
|--------------------------------------------------------|
|--------------------------------------------------------|
|-5-----------7-----------7/8-7/8-7\---------------------|
|-3-----------5-----5-----5/6-5/6-5\---------------------|
|---0-0-3-0-0---0-0-5-0-0------------0-0-0--0-0-0--0-0-0-|
PM  . .   . .   . .   . .            . . .  . . .  . . .

Chorus (Gtr.2)
|------------------------------------------------|
|------------------------------------------------|
|------------------------------------------------|
|---------------------------------10-10-10-10-10-|
|-0-0-0-0-0-3-3-3-3h5--8-8-8-8-8--8--8--8--8--8--|
|-0-0-0-0-0-3-3-3-3h5--8-8-8-8-8--8--8--8--8--8--|

Chorus (Gtr.2) (Con't)
|--------------------------------------------|
|--------------------------------------------|
|--------------------------------------------|
|-----------------------------------------10-|
|-0-0-0-0-0-3-3-3-3h5--8-8-8-8-8--888-8---8--|
|-0-0-0-0-0-3-3-3-3h5--8-8-8-8-8--888-8---8--|
PM                                ...

Interlude
|---------------------------------------------------|
|---------------------------------------------------|
|-----10-----10-----9-----9-----7-----7-----5-----5-|
|--0-0----0-0----0-0---0-0---0-0---0-0---0-0---0-0--|
|-0-0----0-0----0-0---0-0---0-0---0-0---0-0---0-0---|
|---------------------------------------------------|

Interlude 2
|-----------------------------------------------------|
|-----------------------------------------------------|
|-9-----------9---10-----------10--9-----------9---10-|
|-9-----------9---10-----------10--9-----------9---10-|
|-7-----------7---8------------8---7-----------7---8--|
|---0-0-0-0-0---0----0-0-0-0-0---0---0-0-0-0-0---0----|
PM  . . . . .   .    . . . . .   .   . . . . .   .
Interlude 2 (Con't)
|-------------------------------------------------|
|-------------------------------------------------|
|-----------9---7-----------7---9-----------7---5-|
|-----------9---7-----------7---9-----------7---5-|
|-----------7---5-----------5---7-----------5---3-|
|-0-0-0-0-0---0---0-0-0-0-0---0---0-0-0-0-0---0---|
PM. . . . .   .   . . . . .   .   . . . . .   .

Interlude 2 Fill
|-------------------------------|
|-------------------------------|
|-------------------------------|
|-------------------------------|
|-----------7h8p7-----7h8p7-----|
|-0-0-0-0-0-------0-0-------0-0-|
PM. . . . .       . .       . .

Interlude 2 (Gtr.2) (Not correct strumming patterns, but you get the point)
|----------------------------------------------------------|
|----------------------------------------------------------|
|-7-7777777/9-9/10-10\9-9999999/10-10/-12\10-10101010101010|
|-x-xxxxxxx-x-x-x--x--x-xxxxxxx-x--x----x-x--x-x-x-x-x-x-x-|
|-5-5555555/7-7/8--8-\7-7777777/8--8-/-10\8--8-8-8-8-8-8-8-|
|----------------------------------------------------------|
Interlude 2 (Gtr.2) (Con't)
|----------------------------------|
|----------------------------------|
|-10/12-12/14-14\12-12-12-12-12-12-|
|-x--x--x--x--x--x--x-x-x-x-x-x-x--|
|-8-/10-10/12-12\10-10101010101010-|
|----------------------------------|

Outro
|---------------------------------------------------------------|
|---------------------------------------------------------------|
|---------------------------------------------------------------|
|----------------------------------------------------------3--5-|
|-1-3-2-3-1-3-0-3-1-3-2-3-1-3-0-3-1-3-2-3-1-3-0-3-1-3-2-3--1--3-|
|-1-3-2-3-1-3-0-3-1-3-2-3-1-3-0-3-1-3-2-3-1-3-0-3-1-3-2-3-0--0--|
PM. . . . . . . . . . . . . . . . . . . . . . . . . . . . .  .

|----------------------------------------------------------------|
|----------------------------------------------------------------|
|----------------------------------------------------------------|
|----------------------------------------------------------3-----|
|-1-3-2-3-1-3-0-3-1-3-2-3-1-3-0-3-1-3-2-3-1-3-0-3-1-3-2-3--1---1-|
|-1-3-2-3-1-3-0-3-1-3-2-3-1-3-0-3-1-3-2-3-1-3-0-3-1-3-2-3-0--0-1-|
PM. . . . . . . . . . . . . . . . . . . . . . . . . . . . .  .
Related for The End Of A Heartache tab