Song name
# A B C D E F G H I J K L M N O P Q R S T U V W X Y Z

Killswitch Engage - Temple From The Within tab

                         Temple from the Within                              


                            Killswitch Engage




              PM PM PM PM PM       PM    PM    PM    PM  
     S  S  E  E  E  E  E  E     E  E  E  E  E  E  E  E   
E||--------------------------|--------------------------|
B||--------------------------|--------------------------|
G||--------------------------|--------------------------|
D||--7S-8S-7-----------------|--3-----7-----------5-----|
A||--5S-6S-5-----------------|--1-----5-----3-----3-----|
D||-----------0--0--0--0--0--|-----0-----0--3--0-----0--|


           PM PM PM PM PM PM       PM    PM    PM    PM    PM    PM  
  S  S  E  E  E  E  E  E  E     E  E  E  E  E  E  E  E  E  E  E  E   
-----------------------------|--------------------------------------|
-----------------------------|--------------------------------------|
-----------------------------|--------------------------------------|
--7S-8S-7--------------------|--3-----7-----------5-----2-----3-----|
--5S-6S-5--------------------|--1-----5-----3-----3-----0-----1-----|
-----------0--0--0--0--0--0--|-----0-----0--3--0-----0-----0-----0--|


           PM PM PM PM PM       PM    PM    PM    PM  
  S  S  E  E  E  E  E  E     E  E  E  E  E  E  E  E   
--------------------------|--------------------------|
--------------------------|--------------------------|
--------------------------|--------------------------|
--7S-8S-7-----------------|--3-----7-----------5-----|
--5S-6S-5-----------------|--1-----5-----3-----3-----|
-----------0--0--0--0--0--|-----0-----0--3--0-----0--|


           PM PM PM PM PM PM       PM    PM    PM    PM    PM    PM  
  S  S  E  E  E  E  E  E  E     E  E  E  E  E  E  E  E  E  E  E  E   
-----------------------------|--------------------------------------|
-----------------------------|--------------------------------------|
-----------------------------|--------------------------------------|
--7S-8S-7--------------------|--3-----7-----------5-----2-----3-----|
--5S-6S-5--------------------|--1-----5-----3-----3-----0-----1-----|
-----------0--0--0--0--0--0--|-----0-----0--3--0-----0-----0-----0--|


           PM PM PM PM PM       PM    PM    PM    PM  
  S  S  E  E  E  E  E  E     E  E  E  E  E  E  E  E   
--------------------------|--------------------------|
--------------------------|--------------------------|
--------------------------|--------------------------|
--7S-8S-7-----------------|--3-----7-----------5-----|
--5S-6S-5-----------------|--1-----5-----3-----3-----|
-----------0--0--0--0--0--|-----0-----0--3--0-----0--|


           PM PM PM PM PM PM       PM    PM    PM    PM    PM    PM  
  S  S  E  E  E  E  E  E  E     E  E  E  E  E  E  E  E  E  E  E  E   
-----------------------------|--------------------------------------|
-----------------------------|--------------------------------------|
-----------------------------|--------------------------------------|
--7S-8S-7--------------------|--3-----7-----------5-----2-----3-----|
--5S-6S-5--------------------|--1-----5-----3-----3-----0-----1-----|
-----------0--0--0--0--0--0--|-----0-----0--3--0-----0-----0-----0--|


           PM PM PM PM PM PM       PM    PM    PM    PM  
  S  S  E  E  E  E  E  E  E     E  E  E  E  E  E  E  E   
-----------------------------|--------------------------|
-----------------------------|--------------------------|
-----------------------------|--------------------------|
--7S-8S-7--------------------|--3-----7-----------5-----|
--5S-6S-5--------------------|--1-----5-----3-----3-----|
-----------0--0--0--0--0--0--|-----0-----0--3--0-----0--|


           PM PM PM PM PM PM       PM    PM    PM    PM    PM    PM  
  S  S  E  E  E  E  E  E  E     E  E  E  E  E  E  E  E  E  E  E  E   
-----------------------------|--------------------------------------|
-----------------------------|--------------------------------------|
-----------------------------|--------------------------------------|
--7S-8S-7--------------------|--3-----7-----------5-----2-----3-----|
--5S-6S-5--------------------|--1-----5-----3-----3-----0-----1-----|
-----------0--0--0--0--0--0--|-----0-----0--3--0-----0-----0-----0--|


  H        E  E  E  Q    E  E  E  E  E  E  E     W                 
----------------------------------------------|-------------------|
--------------------4-------------4-----------|-------------------|
--------------3-------------3--------3-----3--|-------------------|
--1--------1-----1-------1-----1--------1-----|--0----------------|
--1-------------------------------------------|--0----------------|
--1-------------------------------------------|--0----------------|


  W                   H        E  E  E  Q    E  E  E  E  E  E  E   
-------------------|----------------------------------------------|
-------------------|--------------------4-------------4-----------|
--3----------------|--------------3-------------3--------3-----3--|
--3----------------|--1--------1-----1-------1-----1--------1-----|
--1----------------|--1-------------------------------------------|
-------------------|--1-------------------------------------------|


  W                   W                 
-------------------|-------------------|
-------------------|-------------------|
-------------------|--3----------------|
--0----------------|--3----------------|
--0----------------|--1----------------|
--0----------------|-------------------|


  H        E  E  E  Q    E  E  E  E  E  E  E     W                 
----------------------------------------------|-------------------|
--------------------4-------------4-----------|-------------------|
--------------3-------------3--------3-----3--|-------------------|
--1--------1-----1-------1-----1--------1-----|--0----------------|
--1-------------------------------------------|--0----------------|
--1-------------------------------------------|--0----------------|


  W                   H        E  E  E  Q    E  E  E  E  E  E  E   
-------------------|----------------------------------------------|
-------------------|--------------------4-------------4-----------|
--3----------------|--------------3-------------3--------3-----3--|
--3----------------|--1--------1-----1-------1-----1--------1-----|
--1----------------|--1-------------------------------------------|
-------------------|--1-------------------------------------------|


                                                   PM PM PM PM PM  
  W                   W                   S  S  E  E  E  E  E  E   
-------------------|-------------------|--------------------------|
-------------------|-------------------|--------------------------|
-------------------|--3----------------|--------------------------|
--0----------------|--3----------------|--7S-8S-7-----------------|
--0----------------|--1----------------|--5S-6S-5-----------------|
--0----------------|-------------------|-----------0--0--0--0--0--|


     PM    PM    PM    PM             PM PM PM PM PM PM  
  E  E  E  E  E  E  E  E     S  S  E  E  E  E  E  E  E   
--------------------------|-----------------------------|
--------------------------|-----------------------------|
--------------------------|-----------------------------|
--3-----7-----------5-----|--7S-8S-7--------------------|
--1-----5-----3-----3-----|--5S-6S-5--------------------|
-----0-----0--3--0-----0--|-----------0--0--0--0--0--0--|


     PM    PM    PM    PM    PM    PM             PM PM PM PM PM  
  E  E  E  E  E  E  E  E  E  E  E  E     S  S  E  E  E  E  E  E   
--------------------------------------|--------------------------|
--------------------------------------|--------------------------|
--------------------------------------|--------------------------|
--3-----7-----------5-----2-----3-----|--7S-8S-7-----------------|
--1-----5-----3-----3-----0-----1-----|--5S-6S-5-----------------|
-----0-----0--3--0-----0-----0-----0--|-----------0--0--0--0--0--|


     PM    PM    PM    PM             PM PM PM PM PM PM  
  E  E  E  E  E  E  E  E     S  S  E  E  E  E  E  E  E   
--------------------------|-----------------------------|
--------------------------|-----------------------------|
--------------------------|-----------------------------|
--3-----7-----------5-----|--7S-8S-7--------------------|
--1-----5-----3-----3-----|--5S-6S-5--------------------|
-----0-----0--3--0-----0--|-----------0--0--0--0--0--0--|


     PM    PM    PM    PM    PM    PM             PM PM PM PM PM  
  E  E  E  E  E  E  E  E  E  E  E  E     S  S  E  E  E  E  E  E   
--------------------------------------|--------------------------|
--------------------------------------|--------------------------|
--------------------------------------|--------------------------|
--3-----7-----------5-----2-----3-----|--7S-8S-7-----------------|
--1-----5-----3-----3-----0-----1-----|--5S-6S-5-----------------|
-----0-----0--3--0-----0-----0-----0--|-----------0--0--0--0--0--|


     PM    PM    PM    PM             PM PM PM PM PM PM  
  E  E  E  E  E  E  E  E     S  S  E  E  E  E  E  E  E   
--------------------------|-----------------------------|
--------------------------|-----------------------------|
--------------------------|-----------------------------|
--3-----7-----------5-----|--7S-8S-7--------------------|
--1-----5-----3-----3-----|--5S-6S-5--------------------|
-----0-----0--3--0-----0--|-----------0--0--0--0--0--0--|


     PM    PM    PM    PM    PM    PM             PM PM PM PM PM PM  
  E  E  E  E  E  E  E  E  E  E  E  E     S  S  E  E  E  E  E  E  E   
--------------------------------------|-----------------------------|
--------------------------------------|-----------------------------|
--------------------------------------|-----------------------------|
--3-----7-----------5-----2-----3-----|--7S-8S-7--------------------|
--1-----5-----3-----3-----0-----1-----|--5S-6S-5--------------------|
-----0-----0--3--0-----0-----0-----0--|-----------0--0--0--0--0--0--|


     PM    PM    PM    PM             PM PM PM PM PM PM  
  E  E  E  E  E  E  E  E     S  S  E  E  E  E  E  E  E   
--------------------------|-----------------------------|
--------------------------|-----------------------------|
--------------------------|-----------------------------|
--3-----7-----------5-----|--7S-8S-7--------------------|
--1-----5-----3-----3-----|--5S-6S-5--------------------|
-----0-----0--3--0-----0--|-----------0--0--0--0--0--0--|


     PM    PM    PM    PM    PM    PM  
  E  E  E  E  E  E  E  E  E  E  E  E   
--------------------------------------|
--------------------------------------|
--------------------------------------|
--3-----7-----------5-----2-----3-----|
--1-----5-----3-----3-----0-----1-----|
-----0-----0--3--0-----0-----0-----0--|


   E   E   E  E   E  E  E  E    E  E   E   E   E   E   E   E   
--------------------------------------------------------------|
--10--10---x--8---x-------------------------------------------|
---7---7---x--7---x--9--x--9S--10--L--10--10--10--10--10--10--|
---7---7---7--7---7--7--7--7----7--L---7---7---7---7---7---7--|
--------------------------------------------------------------|
--------------------------------------------------------------|


   E   E   E  E   E  E  E   Q     E   Q     E   E   E   E   
---------------------8-------------------------------------|
--10--10---x--8---x--x--x--10----10--10----10--10--10--10--|
---7---7---x--7---x--7--x---7-----7---7-----7---7---7---7--|
---7---7---7--7---7-----7---7-----7---7-----7---7---7---7--|
-----------------------------------------------------------|
-----------------------------------------------------------|


  E  E  E  E  E  E  E  E   Q    E  E  E  E  E  E   
--------------------------------------------------|
--8--8--x--6--x--5--x--5h--6----6--6--5--5--5--5--|
--5--5--x--5--x--5--x--5---5----5--5--5--5--5--5--|
--5--5--5--5--5--5--5--5---5----5--5--5--5--5--5--|
--------------------------------------------------|
--------------------------------------------------|


              PM PM             PM PM       PM PM  
  E  E  E  E  E  E  E  E  E  E  E  E  E  E  E  E   
--------------------------------------------------|
--3--3--3--3--------3--3--3--3--------3--3--------|
--x--x--x--x--------x--x--x--x--------x--x--------|
--0--0--0--0--------0--0--0--0--------0--0--------|
--------------0--0--------------0--0--------0--0--|
--------------0--0--------------0--0--------0--0--|


   E   E   E  E   E  E  E  E    E  E   E   E   E   E   E   E   
--------------------------------------------------------------|
--10--10---x--8---x-------------------------------------------|
---7---7---x--7---x--9--x--9S--10--L--10--10--10--10--10--10--|
---7---7---7--7---7--7--7--7----7--L---7---7---7---7---7---7--|
--------------------------------------------------------------|
--------------------------------------------------------------|


   E   E   E  E   E  E  E   Q     E   Q     E   E   E   E   
---------------------8-------------------------------------|
--10--10---x--8---x--x--x--10----10--10----10--10--10--10--|
---7---7---x--7---x--7--x---7-----7---7-----7---7---7---7--|
---7---7---7--7---7-----7---7-----7---7-----7---7---7---7--|
-----------------------------------------------------------|
-----------------------------------------------------------|


  E  E  E  E  E  E  E  E   Q    E  E  E  E  E  E   
--------------------------------------------------|
--8--8--x--6--x--5--x--5h--6----6--6--5--5--5--5--|
--5--5--x--5--x--5--x--5---5----5--5--5--5--5--5--|
--5--5--5--5--5--5--5--5---5----5--5--5--5--5--5--|
--------------------------------------------------|
--------------------------------------------------|


              PM PM             PM PM       PM PM  
  E  E  E  E  E  E  E  E  E  E  E  E  E  E  E  E   
--------------------------------------------------|
--3--3--3--3--------3--3--3--3--------3--3--------|
--x--x--x--x--------x--x--x--x--------x--x--------|
--0--0--0--0--------0--0--0--0--------0--0--------|
--------------0--0--------------0--0--------0--0--|
--------------0--0--------------0--0--------0--0--|


  W                W                   W                W                 
------------------------------------|------------------------------------|
------------------------------------|------------------------------------|
------------------------------------|------------------------------------|
--0----------------L----------------|--L----------------L----------------|
--0----------------L----------------|--L----------------L----------------|
--0----------------L----------------|--L----------------L----------------|


                                                                 PM   PM    
  W                W                   W                H        Q    Q     
------------------------------------|--------------------------------------|
------------------------------------|--------------------------------------|
------------------------------------|--------------------------------------|
--0----------------L----------------|--L----------------L------------------|
--0----------------L----------------|--L----------------L--------0----0----|
--0----------------L----------------|--L----------------L--------0----0----|


  PM          PM PM   PM   PM      PM PM   PM    
  E  S  S  E  E  Q    Q    E  Q    E  Q    Q     
------------------------------------------------|
------------------------------------------------|
------------------------------------------------|
------------------------------------------------|
--0--3h-4p-3--0--0----0----0--1----0--0----0----|
--0--3h-4p-3--0--0----0----0--1----0--0----0----|


  PM          PM PM   PM   PM      PM PM   PM    
  E  S  S  E  E  Q    Q    E  Q    E  Q    Q     
------------------------------------------------|
------------------------------------------------|
------------------------------------------------|
------------------------------------------------|
--0--3h-4p-3--0--0----0----0--1----0--0----0----|
--0--3h-4p-3--0--0----0----0--1----0--0----0----|


  PM          PM PM   PM   PM      PM PM   PM    
  E  S  S  E  E  Q    Q    E  Q    E  Q    Q     
------------------------------------------------|
------------------------------------------------|
------------------------------------------------|
------------------------------------------------|
--0--3h-4p-3--0--0----0----0--1----0--0----0----|
--0--3h-4p-3--0--0----0----0--1----0--0----0----|


  PM          PM PM   PM   PM      PM PM     W     
  E  S  S  E  E  Q    Q    E  Q    E  Q      Q     
--------------------------------------------------|
--------------------------------------------------|
--------------------------------------------------|
-------------------------------------------<>5----|
--0--3h-4p-3--0--0----0----0--1----0--0-----------|
--0--3h-4p-3--0--0----0----0--1----0--0-----------|


  PM          PM PM   PM   PM      PM PM   PM    
  E  S  S  E  E  Q    Q    E  Q    E  Q    Q     
------------------------------------------------|
------------------------------------------------|
------------------------------------------------|
------------------------------------------------|
--0--3h-4p-3--0--0----0----0--1----0--0----0----|
--0--3h-4p-3--0--0----0----0--1----0--0----0----|


  PM          PM PM   PM   PM      PM PM   PM    
  E  S  S  E  E  Q    Q    E  Q    E  Q    Q     
------------------------------------------------|
------------------------------------------------|
------------------------------------------------|
------------------------------------------------|
--0--3h-4p-3--0--0----0----0--1----0--0----0----|
--0--3h-4p-3--0--0----0----0--1----0--0----0----|


  PM          PM PM   PM   PM      PM PM   PM    
  E  S  S  E  E  Q    Q    E  Q    E  Q    Q     
------------------------------------------------|
------------------------------------------------|
------------------------------------------------|
------------------------------------------------|
--0--3h-4p-3--0--0----0----0--1----0--0----0----|
--0--3h-4p-3--0--0----0----0--1----0--0----0----|


  PM          PM PM   PM   PM      PM PM   PM    
  E  S  S  E  E  Q    Q    E  Q    E  Q    Q     
------------------------------------------------|
------------------------------------------------|
------------------------------------------------|
------------------------------------------------|
--0--3h-4p-3--0--0----0----0--1----0--0----0----|
--0--3h-4p-3--0--0----0----0--1----0--0----0----|


   E   E   E  E   E  E  E  E    E  E   E   E   E   E   E   E   
--------------------------------------------------------------|
--10--10---x--8---x-------------------------------------------|
---7---7---x--7---x--9--x--9S--10--L--10--10--10--10--10--10--|
---7---7---7--7---7--7--7--7----7--L---7---7---7---7---7---7--|
--------------------------------------------------------------|
--------------------------------------------------------------|


   E   E   E  E   E  E  E   Q     E   Q     E   E   E   E   
---------------------8-------------------------------------|
--10--10---x--8---x--x--x--10----10--10----10--10--10--10--|
---7---7---x--7---x--7--x---7-----7---7-----7---7---7---7--|
---7---7---7--7---7-----7---7-----7---7-----7---7---7---7--|
-----------------------------------------------------------|
-----------------------------------------------------------|


  E  E  E  E  E  E  E  E   Q    E  E  E  E  E  E   
--------------------------------------------------|
--8--8--x--6--x--5--x--5h--6----6--6--5--5--5--5--|
--5--5--x--5--x--5--x--5---5----5--5--5--5--5--5--|
--5--5--5--5--5--5--5--5---5----5--5--5--5--5--5--|
--------------------------------------------------|
--------------------------------------------------|


              PM PM             PM PM       PM PM  
  E  E  E  E  E  E  E  E  E  E  E  E  E  E  E  E   
--------------------------------------------------|
--3--3--3--3--------3--3--3--3--------3--3--------|
--x--x--x--x--------x--x--x--x--------x--x--------|
--0--0--0--0--------0--0--0--0--------0--0--------|
--------------0--0--------------0--0--------0--0--|
--------------0--0--------------0--0--------0--0--|


   E   E   E  E   E  E  E  E    E  E   E   E   E   E   E   E   
--------------------------------------------------------------|
--10--10---x--8---x-------------------------------------------|
---7---7---x--7---x--9--x--9S--10--L--10--10--10--10--10--10--|
---7---7---7--7---7--7--7--7----7--L---7---7---7---7---7---7--|
--------------------------------------------------------------|
--------------------------------------------------------------|


   E   E   E  E   E  E  E   Q     E   Q     E   E   E   E   
---------------------8-------------------------------------|
--10--10---x--8---x--x--x--10----10--10----10--10--10--10--|
---7---7---x--7---x--7--x---7-----7---7-----7---7---7---7--|
---7---7---7--7---7-----7---7-----7---7-----7---7---7---7--|
-----------------------------------------------------------|
-----------------------------------------------------------|


  E  E  E  E  E  E  E  E   Q    E  E  E  E  E  E   
--------------------------------------------------|
--8--8--x--6--x--5--x--5h--6----6--6--5--5--5--5--|
--5--5--x--5--x--5--x--5---5----5--5--5--5--5--5--|
--5--5--5--5--5--5--5--5---5----5--5--5--5--5--5--|
--------------------------------------------------|
--------------------------------------------------|


              PM PM             PM PM       PM PM  
  E  E  E  E  E  E  E  E  E  E  E  E  E  E  E  E   
--------------------------------------------------|
--3--3--3--3--------3--3--3--3--------3--3--------|
--x--x--x--x--------x--x--x--x--------x--x--------|
--0--0--0--0--------0--0--0--0--------0--0--------|
--------------0--0--------------0--0--------0--0--|
--------------0--0--------------0--0--------0--0--|


              PM PM             PM PM PM PM PM PM  
  E  E  E  E  E  E  E  E  E  E  E  E  E  E  E  E   
--------------------------------------------------|
--3--3--3--3--------3--3--3--3--------------------|
--x--x--x--x--------x--x--x--x--------------------|
--0--0--0--0--------0--0--0--0--------------------|
--------------0--0--------------0--0--0--0--0--0--|
--------------0--0--------------0--0--0--0--0--0--|


              PM PM             PM PM PM PM PM PM  
  E  E  E  E  E  E  E  E  E  E  E  E  E  E  E  E   
--------------------------------------------------|
--3--3--3--3--------3--3--3--3--------------------|
--x--x--x--x--------x--x--x--x--------------------|
--0--0--0--0--------0--0--0--0--------------------|
--------------0--0--------------0--0--0--0--0--0--|
--------------0--0--------------0--0--0--0--0--0--|


              PM PM             PM PM PM PM PM PM  
  E  E  E  E  E  E  E  E  E  E  E  E  E  E  E  E   
--------------------------------------------------|
--3--3--3--3--------3--3--3--3--------------------|
--x--x--x--x--------x--x--x--x--------------------|
--0--0--0--0--------0--0--0--0--------------------|
--------------0--0--------------0--0--0--0--0--0--|
--------------0--0--------------0--0--0--0--0--0--|


              PM PM             PM PM PM PM PM PM  
  E  E  E  E  E  E  E  E  E  E  E  E  E  E  E  E   
--------------------------------------------------|
--3--3--3--3--------3--3--3--3--------------------|
--x--x--x--x--------x--x--x--x--------------------|
--0--0--0--0--------0--0--0--0--------------------|
--------------0--0--------------0--0--0--0--0--0--|
--------------0--0--------------0--0--0--0--0--0--|


              PM PM             PM PM PM PM PM PM  
  E  E  E  E  E  E  E  E  E  E  E  E  E  E  E  E   
--------------------------------------------------|
--3--3--3--3--------3--3--3--3--------------------|
--x--x--x--x--------x--x--x--x--------------------|
--0--0--0--0--------0--0--0--0--------------------|
--------------0--0--------------0--0--0--0--0--0--|
--------------0--0--------------0--0--0--0--0--0--|


              PM PM             PM PM PM PM PM PM  
  E  E  E  E  E  E  E  E  E  E  E  E  E  E  E  E   
--------------------------------------------------|
--3--3--3--3--------3--3--3--3--------------------|
--x--x--x--x--------x--x--x--x--------------------|
--0--0--0--0--------0--0--0--0--------------------|
--------------0--0--------------0--0--0--0--0--0--|
--------------0--0--------------0--0--0--0--0--0--|


              PM PM             PM PM PM PM PM PM  
  E  E  E  E  E  E  E  E  E  E  E  E  E  E  E  E   
--------------------------------------------------|
--3--3--3--3--------3--3--3--3--------------------|
--x--x--x--x--------x--x--x--x--------------------|
--0--0--0--0--------0--0--0--0--------------------|
--------------0--0--------------0--0--0--0--0--0--|
--------------0--0--------------0--0--0--0--0--0--|


              PM PM             PM PM       PM PM  
  E  E  E  E  E  E  E  E  E  E  E  E  E  E  E  E   
--------------------------------------------------|
--3--3--3--3--------3--3--3--3--------3--3--------|
--x--x--x--x--------x--x--x--x--------x--x--------|
--0--0--0--0--------0--0--0--0--------0--0--------|
--------------0--0--------------0--0--------0--0--|
--------------0--0--------------0--0--------0--0--|


  H        E  E  E  Q    E  E  E  E  E  E  E     W                 
----------------------------------------------|-------------------|
--------------------4-------------4-----------|-------------------|
--------------3-------------3--------3-----3--|-------------------|
--1--------1-----1-------1-----1--------1-----|--0----------------|
--1-------------------------------------------|--0----------------|
--1-------------------------------------------|--0----------------|


  W                   H        E  E  E  Q    E  E  E  E  E  E  E   
-------------------|----------------------------------------------|
-------------------|--------------------4-------------4-----------|
--3----------------|--------------3-------------3--------3-----3--|
--3----------------|--1--------1-----1-------1-----1--------1-----|
--1----------------|--1-------------------------------------------|
-------------------|--1-------------------------------------------|


  W                   W                 
-------------------|-------------------|
-------------------|-------------------|
-------------------|--3----------------|
--0----------------|--3----------------|
--0----------------|--1----------------|
--0----------------|-------------------|


  H        E  E  E  Q    E  E  E  E  E  E  E     W                 
----------------------------------------------|-------------------|
--------------------4-------------4-----------|-------------------|
--------------3-------------3--------3-----3--|-------------------|
--1--------1-----1-------1-----1--------1-----|--0----------------|
--1-------------------------------------------|--0----------------|
--1-------------------------------------------|--0----------------|


  W                   H        E  E  E  Q    E  E  E  E  E  E  E   
-------------------|----------------------------------------------|
-------------------|--------------------4-------------4-----------|
--3----------------|--------------3-------------3--------3-----3--|
--3----------------|--1--------1-----1-------1-----1--------1-----|
--1----------------|--1-------------------------------------------|
-------------------|--1-------------------------------------------|


  W                   W                 
-------------------|-------------------|
-------------------|-------------------|
-------------------|--3----------------|
--0----------------|--3----------------|
--0----------------|--1----------------|
--0----------------|-------------------|


           PM PM           PM PM PM PM PM PM  
  H        E  E  Q    Q    E  E  E  E  E  E   
---------------------------------------------|
---------------------------------------------|
---------------------------------------------|
---------------------------------------------|
-----------0--0------------0--0--0--0--0--0--|
-----------0--0------------0--0--0--0--0--0--|


           PM PM           PM PM PM PM PM PM  
  H        E  E  Q    Q    E  E  E  E  E  E   
---------------------------------------------|
---------------------------------------------|
---------------------------------------------|
---------------------------------------------|
-----------0--0------------0--0--0--0--0--0--|
-----------0--0------------0--0--0--0--0--0--|


           PM PM           PM PM PM PM PM PM  
  H        E  E  Q    Q    E  E  E  E  E  E   
---------------------------------------------|
---------------------------------------------|
---------------------------------------------|
---------------------------------------------|
-----------0--0------------0--0--0--0--0--0--|
-----------0--0------------0--0--0--0--0--0--|


           PM PM           PM PM           
  H        E  E  Q    Q    E  E  H         
------------------------------------------|
------------------------------------------|
------------------------------------------|
------------------------------------------|
-----------0--0------------0--0--L--------|
-----------0--0------------0--0--L--------|


           PM PM           PM PM PM PM PM PM  
  H        E  E  Q    Q    E  E  E  E  E  E   
---------------------------------------------|
---------------------------------------------|
---------------------------------------------|
---------------------------------------------|
--L--------0--0------------0--0--0--0--0--0--|
--L--------0--0------------0--0--0--0--0--0--|


           PM PM           PM PM PM PM PM PM  
  H        E  E  Q    Q    E  E  E  E  E  E   
---------------------------------------------|
---------------------------------------------|
---------------------------------------------|
---------------------------------------------|
-----------0--0------------0--0--0--0--0--0--|
-----------0--0------------0--0--0--0--0--0--|


           PM PM           PM PM PM PM PM PM  
  H        E  E  Q    Q    E  E  E  E  E  E   
---------------------------------------------|
---------------------------------------------|
---------------------------------------------|
---------------------------------------------|
-----------0--0------------0--0--0--0--0--0--|
-----------0--0------------0--0--0--0--0--0--|


           PM PM           PM PM      PM PM  
  H        E  E  Q    Q    E  E  Q    E  E   
--------------------------------------------|
--------------------------------------------|
--------------------------------------------|
--------------------------------------------|
-----------0--0------------0--0-------0--0--|
-----------0--0------------0--0-------0--0--|


           PM PM           PM PM PM PM PM PM  
  H        E  E  Q    Q    E  E  E  E  E  E   
---------------------------------------------|
---------------------------------------------|
---------------------------------------------|
---------------------------------------------|
-----------0--0------------0--0--0--0--0--0--|
-----------0--0------------0--0--0--0--0--0--|


           PM PM           PM PM PM PM PM PM  
  H        E  E  Q    Q    E  E  E  E  E  E   
---------------------------------------------|
---------------------------------------------|
---------------------------------------------|
---------------------------------------------|
-----------0--0------------0--0--0--0--0--0--|
-----------0--0------------0--0--0--0--0--0--|


           PM PM           PM PM PM PM PM PM  
  H        E  E  Q    Q    E  E  E  E  E  E   
---------------------------------------------|
---------------------------------------------|
---------------------------------------------|
---------------------------------------------|
-----------0--0------------0--0--0--0--0--0--|
-----------0--0------------0--0--0--0--0--0--|


           PM PM           PM PM           
  H        E  E  Q    Q    E  E  H         
------------------------------------------|
------------------------------------------|
------------------------------------------|
------------------------------------------|
-----------0--0------------0--0--L--------|
-----------0--0------------0--0--L--------|


           PM PM           PM PM PM PM PM PM  
  H        E  E  Q    Q    E  E  E  E  E  E   
---------------------------------------------|
---------------------------------------------|
---------------------------------------------|
---------------------------------------------|
--L--------0--0------------0--0--0--0--0--0--|
--L--------0--0------------0--0--0--0--0--0--|


           PM PM           PM PM PM PM PM PM  
  H        E  E  Q    Q    E  E  E  E  E  E   
---------------------------------------------|
---------------------------------------------|
---------------------------------------------|
---------------------------------------------|
-----------0--0------------0--0--0--0--0--0--|
-----------0--0------------0--0--0--0--0--0--|


           PM PM           PM PM PM PM PM PM  
  H        E  E  Q    Q    E  E  E  E  E  E   
---------------------------------------------|
---------------------------------------------|
---------------------------------------------|
---------------------------------------------|
-----------0--0------------0--0--0--0--0--0--|
-----------0--0------------0--0--0--0--0--0--|


           PM PM           PM PM      PM PM  
  H        E  E  Q    Q    E  E  Q    E  E   
--------------------------------------------|
--------------------------------------------|
--------------------------------------------|
--------------------------------------------|
-----------0--0------------0--0-------0--0--|
-----------0--0------------0--0-------0--0--|


           PM PM           PM PM PM PM PM PM  
  H        E  E  Q    Q    E  E  E  E  E  E   
---------------------------------------------|
---------------------------------------------|
---------------------------------------------|
---------------------------------------------|
-----------0--0------------0--0--0--0--0--0--|
-----------0--0------------0--0--0--0--0--0--|


           PM PM           PM PM PM PM PM PM  
  H        E  E  Q    Q    E  E  E  E  E  E   
---------------------------------------------|
---------------------------------------------|
---------------------------------------------|
---------------------------------------------|
-----------0--0------------0--0--0--0--0--0--|
-----------0--0------------0--0--0--0--0--0--|


           PM PM           PM PM PM PM PM PM  
  H        E  E  Q    Q    E  E  E  E  E  E   
---------------------------------------------|
---------------------------------------------|
---------------------------------------------|
---------------------------------------------|
-----------0--0------------0--0--0--0--0--0--|
-----------0--0------------0--0--0--0--0--0--|


           PM PM           PM PM            
  H        E  E  Q    Q    E  E  H          
------------------------------------------||
------------------------------------------||
------------------------------------------||
------------------------------------------||
-----------0--0------------0--0--L--------||
-----------0--0------------0--0--L--------||




Duration Legend
---------------
W - whole
H - half
Q - quarter
E - 8th
S - 16th
T - 32nd
X - 64th
. - note dotted
|-n-|  - n-tuplets


Tablature Legend
----------------
L - tied note
x - dead note
g - grace note
(n) - ghost note
> - accentuded note
NH - natural harmonic
AH - artificial harmonic
TH - tapped harmonic
SH - semi harmonic
PH - pitch harmonic
h - hammer on
p - pull off
b - bend
br - bendRelease
pb - preBend
pbr - preBendRelease
brb - bendReleaseBend
\n/ - tremolo bar dip
\n - tremolo bar dive
-/n - tremolo bar Release up
/n\ - tremolo bar inverted dip
/n - tremolo bar return
-\n - tremolo bar Release down
S - shift slide
s - legato slide
/ -  slide into from below or out of upwards
\ -  slide into from above or out of downwards
~ - vibrato
W - wide vibrato
tr - trill
TP - tremolo picking
T - tapping
S - slap
P - pop
< - fade in
^ - brush up
v - brush down
Tap to rate this tab
# A B C D E F G H I J K L M N O P Q R S T U V W X Y Z