Song name
# A B C D E F G H I J K L M N O P Q R S T U V W X Y Z

Killswitch Engage - Numb Sickened Eyes tab

first tab....rate it well i think its very close to the actual thing at least the 1st parts are

tuning: C G C F A D (Drop C)

INTRO+VERSE
D|-----------------------------------------------------------|
A|-----------------------------------------------------------|
F|-----------------------------------------------------------|
C|222-4-222-4----222-4--2-2-5-7--222-4-222-4---2-5-7---------| X3
G|222-2-222-2----222-2--2-0-3-5--222-2-222-2---0-3-5-3-5-8---|
C|222---222------222----2--------222---222-----------3-5-8---|
PM...   ...      ...    .        ...   ...

VERSE
D|---------|              |------------|
A|---------|              |------------|
F|---------|              |------------|
C|4-222222-| X3  then     |2-5-7-------|  and do those 2 parts 4 times
G|2-222222-|              |0-3-5-3-5-8-|
C|--222222-|              |------3-5-8-|

PRE-CHORUS
D|-----------------------------------|
A|-----------------------------------|
F|10101010101010121099999999---------|
C|--------------------------99999999-| X2
G|-----------------------------------|
C|-----------------------------------|

D|-------------------|
A|-------------------|
F|-------------------|
C|-8-7-5-10-8-7-5-9--|
G|-8-7-5-10-8-7-5-9--|
C|-8-7-5-10-8-7-5-9--|
PM . . .  . . . . .

CHORUS
D|-----------------------------------------|
A|-----------------------------------------|
F|-----------------------------------------|
C|-----------------------------------------| 
G|----3--3--3--3h5-3/2----2--2--2--2h3-2---|
C|-333-33-33--3--------222-22-22--2-----3--|

D|---------------------------------------|
A|---------------------------------------|
F|---------------------------------------|
C|----------------------8-7-5-10-8-7-5-9-|
G|----3--3--3--3h5-3/2--8-7-5-10-8-7-5-9-|
C|-333-33-33--3---------8-7-5-10-8-7-5-9-|
PM                      . . .  . . . . .

D|-----------------------------------------|
A|-----------------------------------------|
F|-----------------------------------------|
C|-----------------------------------------| 
G|----3--3--3--3h5-3/2----2--2--2--2h3-2---|
C|-333-33-33--3--------222-22-22--2-----3--|

D|------------------------------------|
A|------------------------------------|
F|------------------------------------|
C|-----------------------2-5-7--------| 
G|----3--3--3--3h5-3/2---0-3-5-3-5-8--|
C|-333-33-33--3----------------3-5-8--|

         (------------------)
D|---------|              |------------|
A|---------|              |------------|
F|---------|              |------------|
C|4-222222-| X3  then     |2-5-7-------|  and do those 2 parts 4 times
G|2-222222-|              |0-3-5-3-5-8-|
C|--222222-|              |------3-5-8-|
         (------------------)

D|-----------------------------------|
A|-----------------------------------|
F|10101010101010121099999999---------|
C|--------------------------99999999-| X2
G|-----------------------------------|
C|-----------------------------------|

D|-------------------|
A|-------------------|
F|-------------------|
C|-8-7-5-10-8-7-5-9--|
G|-8-7-5-10-8-7-5-9--|
C|-8-7-5-10-8-7-5-9--|
PM . . .  . . . . .


D|-----------------------------------------|
A|-----------------------------------------|
F|-----------------------------------------|
C|-----------------------------------------| 
G|----3--3--3--3h5-3/2----2--2--2--2h3-2---|
C|-333-33-33--3--------222-22-22--2-----3--|

D|---------------------------------------|
A|---------------------------------------|
F|---------------------------------------|
C|----------------------8-7-5-10-8-7-5-9-|
G|----3--3--3--3h5-3/2--8-7-5-10-8-7-5-9-|
C|-333-33-3------------8-7-5-10-8-7-5-9-|
PM                      . . .  . . . . .

D|-----------------------------------------|
A|-----------------------------------------|
F|-----------------------------------------|
C|-----------------------------------------| 
G|----3--3--3--3h5-3/2----2--2--2--2h3-2---|
C|-333-33-33-3--------222-22--22--2-----3--|

D|------------------------------------|
A|------------------------------------|
F|------------------------------------|
C|-----------------------2-5-7--------| 
G|----3--3--3--3h5-3/2---0-3-5-3-5-8--|
C|-333-33-33--3----------------3-5-8--|


D|-----------------------------------------------------------|
A|-----------------------------------------------------------|
F|-----------------------------------------------------------|
C|222-4-222-4----222-4--2-2-5-7--222-4-222-4---2-5-7---------| X2
G|222-2-222-2----222-2--2-0-3-5--222-2-222-2---0-3-5-3-5-8---|
C|222---222------222----2--------222---222-----------3-5-8---|
PM...   ...      ...    .        ...   ...

BRIDGE
D|------------------------------------------------------------|
A|------------------------------------------------------------|
F|------------------------------------------------------------|
C|222-4-22--222-4-22-2----222-4-22--222-4-22--2h3-2h3-0h1-0h1-|
G|222-2-22--222-2-22-2----222-2-22--222-2-22------------------|
C|222---22--222---22-2----222---22--222---22------------------|


D|-----------------------------------------------------------|
A|-----------------------------------------------------------|
F|-----------------------------------------------------------|
C|222-4-222-4----222-4--2-2-5-7--222-4-222-4---2-5-7---------| X2
G|222-2-222-2----222-2--2-0-3-5--222-2-222-2---0-3-5-3-5-8---|
C|222---222------222----2--------222---222-----------3-5-8---|
PM...   ...      ...    .        ...   ...


D|------------------------------|
A|------------------------------|
F|-5~---5/7\5-4-----------------|
C|-5~---5/7\3-4-----------------|
G|-3~---3/5\3-2-----2-2-2-2-2-2-|
C|------------------2-2-2-2-2-2-|
PM                  . . . . . .
THE END hope it worked out good make sure u rate it i think its about 98% right
Tap to rate this tab
 
# A B C D E F G H I J K L M N O P Q R S T U V W X Y Z