Song name
# A B C D E F G H I J K L M N O P Q R S T U V W X Y Z

Killswitch Engage - Untitiled And Unloved tab

band:killswitch engage
song:untitled and unloved
album:alive or just breathing (special addition)
tunning:drop c
tabber:dicer4
e-mail:dicer4@msn.com
releas notes: this song is an acoustic song off of the alive or just breathing
special addition album, its not on the actual album but is on the bonus disc.

riff 1
D|-----------------------------------2---2-------------------------|
A|--5h6--8p6-3-3-3-3--5h6--8p6-3-0-3-3-3-3-------------------------|
F|--4----------2---2--4------------2-2-2-2-------------------------|
C|-------------0---0---------------0---0---------------------------|
G|-----------------------------------------------------------------|
C|-----------------------------------------------------------------|

riff 2
D|----------------------------------------------------------------|
A|-4-4-4-4--3-3-3-3--6-6-6-6--4-4-4-4--8-8-8-8--4-4-4-4--6-6-6--4-|
F|-2-2-2-2--1-1-1-1--4-4-4-4--2-2-2-2--6-6-6-6--2-2-2-2--4-4-4--2-|
C|-3-3-3-3--2-2-2-2--5-5-5-5--3-3-3-3--7-7-7-7--3-3-3-3--5-5-5--3-|
G|----------------------------------------------------------------|
C|----------------------------------------------------------------|

h hammer on
p pull off


Tap to rate this tab
 
# A B C D E F G H I J K L M N O P Q R S T U V W X Y Z