Song name
# A B C D E F G H I J K L M N O P Q R S T U V W X Y Z

Killswitch Engage - My Life For Yours tab

band: killswitch engage
song: my life for yours
album:the end of heartache special addition
        tabber: dicer4
        e-mail: dicer4@msn.com

this tab origanaly posted on metaltabs.com

intro
d|-------------------------------------------------------------|
a|-------------------------------------------------------------|
f|-------------------------------------------------------------|
c|--0---0---0---0---0---0-0---0---0---0---0---0----------------|
g|--6---6---6---6---6-5-6-6---6---6---6---6-5-6----------------|
c|----0---0---0---0---0-----0---0---0---0---0----8-0-7-0-5-0-7-|
pm    .   .   .   .         .   .   .   .   .

verse
d|------------------------------------------------------------------|
a|------------------------------------------------------------------|
f|------------------------------------------------------------------|
c|------------------------------------------------------------------|
g|------------------------------------------------------------------|
c|--6000000600000060000006000000-8-0-7-0-5-0-7----------------------|

d|-------------------------------------------------------------------|
a|-------------------------------------------------------------------|
f|-------------------------------------------------------------------|
c|-------------------------------------------------------------------|
g|-------------------------------------------------------------------|
c|--6000000600000060000006000000778888-------------------------------|

 pre-chorus (clean)
d|------0----0---------0-----0-------0-----0-----2-----------------|
a|-------3----3---------3-----3-------3-----3-----3----------------|
f|----3---3---------4----4---------3---3-----------2---------------|
c|-----------------------------------------------------------------|
g|-1-------1-------2-------2-----1-------1-------------------------|
c|---------------------------------------------0-------------------|


chorus
d|--------------------------------------------------------------------|
a|--------------------------------------------------------------------|
f|--10-------11-----10--------11--------------------------------------|
c|--8--------9------8----7----9---------------------------------------|
g|--8--------9------8----5----9---------------------------------------|
c|--8--------9------8----0----9---------------------------------------|


outro
d|------------------------------------------------------------------------|
a|------------------------------------------------------------------------|
f|------------------------------------------------------------------------|
c|--1-0-1------------4--1--0----------------------------------------------|
g|--1-0-1------------4--1--0----------------------------------------------|
c|--1-0-1------------4--1--0----------------------------------------------|
Tap to rate this tab
 
# A B C D E F G H I J K L M N O P Q R S T U V W X Y Z