Song name
# A B C D E F G H I J K L M N O P Q R S T U V W X Y Z

Killswitch Engage - One Last Sunset tab

band: killswitch engage
album:killswitch engage
song: one last sunset
    tabber: dicer4
tuning: dropc (cgcfad)
These are the guitar parts in order, theres alot so youl have to figure out wiitch part
the song is witch,  i couldnt figure out the solo at the end of the song so yull have to
that your self, the first riff is played on piano on the cd, but this is what it sounds 
on guitar.

pm      palm mute
/ or   slide up or down
 riff one
d|-----------------------------------------|
a|-----0------------------0----------------|
f|---------0------------------0------------|
c|--------------4------------------4-------|
g|-2----2-------------2----2---------------|
c|------------4-----------------4----------|

d|----------------------------------------|
a|----------------------------------------|
f|-------0-------------0------------------|
c|---4-------4-----4-------4--------------|
g|-0---0---------0---0--------------------|
c|---------2-------------2----------------|

riff 2 gtr.1
d|-3333333333--22222222222----------------|
a|-3333333333--33333333333----------------|
f|-2222222222--11111111111----------------|
c|----------------------------------------|
g|----------------------------------------|
c|----------------------------------------|

riff 2 gtr.2
d|----------------------------------------|
a|----------------------------------------|
f|----------------------------------------|
c|-5------5-------4------4------4---------|
g|-3-55-5-3-55-5--2-44-4-2-44-4-2---------|
c|-5-55-5-5-55-5--4-44-4-4-44-4-4---------|
pm   .. .   .. .    .. .   .. .

riff 2 gtr.3
d|------------------------------------------|
a|--6-3-3/5--6-6/9-95-----------------------|
f|------------------------------------------|
c|------------------------------------------|
g|------------------------------------------|
c|------------------------------------------|

riff 3 gtr.2 (gtr.1 plays riff one)
d|------------------------------------------|
a|------------------------------------------|
f|------------------------------------------|
c|-5---------5----------4---------4---------|
g|-5-55-55-5-5-55-55-5--4-44-44-4-4-44-44-4-|
c|-3-33-33-3-3-33-33-3--2-22-22-2-2-22-22-2-|
pm   .. .. .   .. .. .    .. .. .   .. .. .

riff 3 (ontinued)
d|------------------------------------------|
a|------------------------------------------|
f|------------------------------------------|
c|-3---------3----------2---------2---------|
g|-3-33-33-3-3-33-33-3--2-22-22-2-2-22-22-2-|
c|-1-11-11-1-1-11-11-1--0-00-00-0-0-00-00-0-|
pm   .. .. .   .. .. .    .. .. .   .. .. .
Tap to rate this tab
 
# A B C D E F G H I J K L M N O P Q R S T U V W X Y Z