Song name
# A B C D E F G H I J K L M N O P Q R S T U V W X Y Z

Killswitch Engage - Let The Bridges Burn tab

My attempt at tabbing this great song, I think it's 100% but I'm not sure, it sounds right though.

Tabbed by: Joel Stephenson
Tuning: Dropped C

Play each note 3 times.

Guitar 1
D|-----------------------------------------------------------------|
A|-----------------------------------------------------------------|
F|-----------------------------------------------------------------|
C|-5-5-5-5-6-6-6-6-8-8-8-8-8-8-8-8-5-5-5-5-6-6-6-6-8-8-8-8-6-6-6-6-|
G|-----------------------------------------------------------------|
C|-----------------------------------------------------------------|
									x2
Guitar 2
D|-----------------------------------------------------------------|
A|-----------------------------------------------------------------|
F|-----------------------------------------------------------------|
C|-----------------------------------------------------------------|
G|-3-3-3-3-3-3-3-3-4-4-4-4-6-6-6-6-3-3-3-3-3-3-3-3-4-4-4-4-6-6-6-6-|
C|-----------------------------------------------------------------|

Guitar 1
D|----------------|
A|----------------|
F|----------------|
C|-----6---5h6p5--|
G|-4-4---4------6-|
C|----------------|
   - -   -

Both guitars
D|----------------------------------------------------------|
A|----------------------------------------------------------|
F|----------------------------------------------------------|x4
C|--------------6-6-5---------------------------------------|
G|-3------------4-4-3-----------4-4-3-------------4-3-----1-|
C|-3--3-3-3-3-3-------3-3-3-3-3-4-4-3-3-3-3-3-3-3-4-3-3-3-1-|
      - - - - -       - - - - -       - - - - - -     - -

Both Guitars
D|--------------------------|
A|--------------------------|
F|--------------------------|x2
C|---5----------------------|
G|-3-3-3-4-3-4-8-10-8-1-1-1-|
C|-3---3-3-3-3-8-8--8-1-1-1-|
   -   - - - - - -  - - - -

The 3rd & 4th times this is played there's another riff in the background, it goes like this:
D|-----------------------------------------------------------------|
A|-----------------------------------------------------------------|
F|-----------------------------------------------------------------|x2
C|-----6---5---6-------6---5h6p5-------6---5---6-------6---5h6p5---|
G|-3-3---3---3---3-3-3---3-------6-4-4---4---4---4-6-6---6-------6-|
C|-----------------------------------------------------------------|
   - -   -   -   - - -   -         - -   -   -   - - -   -

Riff 4:

Both Guitars
D|----------------------------------------------------------|
A|----------------------------------------------------------|
F|----------------------------------------------------------|x4
C|--------------6-6-5---------------------------------------|
G|-3------------4-4-3-----------4-4-3-------------4-3-----1-|
C|-3--3-3-3-3-3-------3-3-3-3-3-4-4-3-3-3-3-3-3-3-4-3-3-3-1-|

Guitar 1
D|---------------------------------------------------|
A|---------------------------------------------------|
F|-----------------------------------------------8---|x2
C|-10---10-10-13-11-8-10-11-10---10-10-10b11-8-6---5-|
G|----8------------------------8---------------------|
C|---------------------------------------------------|

Guitar 2
D|-------------------------------------|
A|-------------------------------------|
G|-------------------------------------|
C|-6-6-6-6-----------------------------|
G|-4-4-4-4-1---3-3-3-3--6-6-6-10-10-10-|
C|---------1---3-3-3-3--6-6-6-10-10-10-|
     - -         - - 
Riff 6:

Guitar 1
D|-----------------------------------------------------------------|
A|-----------------------------------------------------------------|
F|-----------------------------------------------------------------|
C|-5-5-5-5-6-6-6-6-8-8-8-8-8-8-8-8-5-5-5-5-6-6-6-6-8-8-8-8-6-6-6-6-|
G|-----------------------------------------------------------------|
C|-----------------------------------------------------------------|
									x2
Guitar 2
D|-----------------------------------------------------------------|
A|-----------------------------------------------------------------|
F|-----------------------------------------------------------------|
C|-----------------------------------------------------------------|
G|-3-3-3-3-3-3-3-3-4-4-4-4-6-6-6-6-3-3-3-3-3-3-3-3-4-4-4-4-6-6-6-6-|
C|-----------------------------------------------------------------|

Both Guitars
D|--------------------------|
A|--------------------------|
F|--------------------------|x2
C|---5----------------------|
G|-3-3-3-4-3-4-8-10-8-1-1-1-|
C|-3---3-3-3-3-8-8--8-1-1-1-|
   -   - - - - - -  - - - -

Guitar 1
D|-----------------------------------------------------------------|
A|-----------------------------------------------------------------|
F|-----------------------------------------------------------------|x2
C|-----6---5---6-------6---5h6p5-------6---5---6-------6---5h6p5---|
G|-3-3---3---3---3-3-3---3-------6-4-4---4---4---4-6-6---6-------6-|
C|-----------------------------------------------------------------|
   - -   -   -   - - -   -         - -   -   -   - - -   -

Guitar 2
D|---------------------------------------------------------------------------|
A|---------------------------------------------------------------------------|
F|---------------------------------------------------------------------------|
C|-----10---8---10-------10---8h10p8--------10---8---10-------10---8h10p8----|
G|-8-8----8---8----8-8-8----8--------10-8-8----8---8----8-8-8----8--------10-|
C|---------------------------------------------------------------------------|
   - -    -   -    - - -    -           - -    -   -    - - -    -
Guitar 1
D|---------------------------------------------------|
A|---------------------------------------------------|
F|-----------------------------------------------8---|x4
C|-10*--10-10-13-11-8-10-11-10---10-10-10b11-8-6---5-|
G|----8------------------------8---------------------|
C|---------------------------------------------------|

Guitar 2
D|-------------------------------------|
A|-------------------------------------|
G|-------------------------------------|x2
C|-6-6-6-6-----------------------------|
G|-4-4-4-4-1---3-3-3-3--6-6-6-10-10-10-|
C|---------1---3-3-3-3--6-6-6-10-10-10-|
     - -         - -   

Guitar 1
D|---------------------------------------------------------------------------|
A|---------------------------------------------------------------------------|
F|---------------------------------------------------------------------------|
C|---------------------------------------------------------------------------|
G|---------------------------------------------------------------------------|
C|3b4r3-1-3-3b4r3-1-3-3b4r3-1-3----3b4r3-1-3-3b4r3-1-3-3b4r3-1-3-2-2-2-2-2-2-|

Guitar 2
D|---------------------------------------------------------------------------|
A|---------------------------------------------------------------------------|
G|---------------------------------------------------------------------------|
C|-3~------------------------------------------------------------------------|
G|---------------------------------------------------------------------------|
C|---------------------------------------------------------------------------|

Both Guitars
D|-----------------------------------------------------------------------------|
A|-----------------------------------------------------------------------------|
G|-----------------------------------------------------------------------------|
C|-----------------------------------------------------------------------------|
G|---------------------------------------------------------------------3---4-3-|
C|-3b4r3-1-3-3-3-3-3-3-3-3b4r3-1-3-3-3-3-3-3-3-3b4r3-1-3-3-3-3-3-3-3-1---1-----|
             - - - - - -           - - - - - -           - - - - - - -   -

D|-----------------------------------------------------------------------------|
A|-----------------------------------------------------------------------------|
G|-----------------------------------------------------------------------------|
C|-------------------------------------------------------------------------3---|
G|---------------------------------------------------------------------3-----3-|
C|-3b4r3-1-3-3-3-3-3-3-3-3b4r3-1-3-3-3-3-3-3-3-3b4r3-1-3-3-3-3-3-3-3-1---1-----|
             - - - - - -           - - - - - -           - - - - - - -   -

D|---------------------------------------------------------------------------|
A|---------------------------------------------------------------------------|
F|---------------------------------------------------------------------------|
C|---------------------------------------------------------------------------|
G|---------------------------------------------------------------------------|
C|3b4r3-1-3-3b4r3-1-3-3b4r3-1-3----3b4r3-1-3-3b4r3-1-3-3b4r3-1-3-2-2-2-2-2-2-|
                                                                 - - - - - - 
Guitar 1
D|-------------------------------------------------------------------------|
A|-------------------------------------------------------------------------|
F|-------------------------------------------------------------------------|
C|---------------------------------------------------------------6----6-10-|
G|-----------------------------------------------------------------10------|
C|3b4r3-1-3-3b4r3-1-3-3b4r3-1-3----3b4r3-1-3-3b4r3-1-3-3b4r3-1-3-----------|

D|------------------------------------------------------------------------|
A|------------------------------------------------------------------------|
F|------------------------------------------------------------------------|
C|------------------------------------------------------------------------|
G|---------------------------------------------------------------3-5-6-10-|
C|3b4r3-1-3-3b4r3-1-3-3b4r3-1-3----3b4r3-1-3-3b4r3-1-3-3b4r3-1-3-3-5-6-10-|

Guitar 1
D|---------------------------------------------------|
A|---------------------------------------------------|
F|-----------------------------------------------8---|x2
C|-10---10-10-13-11-8-10-11-10---10-10-10b11-8-6---5-|
G|----8------------------------8---------------------|
C|---------------------------------------------------|

Guitar 2
D|-------------------------------------|
A|-------------------------------------|
G|-------------------------------------|x2
C|-6-6-6-6-----------------------------|
G|-4-4-4-4-1---3-3-3-3--6-6-6-10-10-10-|
C|---------1---3-3-3-3--6-6-6-10-10-10-|
     - -         - -     

Both Guitars
D|-------------------------------------------------------------------------|
A|-------------------------------------------------------------------------|
F|-13-13-13-13-13-13-12-12-12-12-12-12-13-13-13-13-13-12-13-13-13-13-13-13-|X2
C|-x--x--x--x--x--x--x--x--x--x--x--x--x--x--x--x--x--x--x--x--x--x--x--x--|
G|-11-11-11-11-11-11-10-10-10-10-10-10-11-11-11-11-11-10-11-11-11-11-11-11-|
C|-------------------------------------------------------------------------|

Guitar 1
D|----------------|
A|----------------|
G|-13----12----10-|
C|-x-----x-----x--|
G|-11----10----8--|
C|----------------|

Guitar 2
D|----------------|
A|----------------|
G|-13----12----13-|
C|-x-----x-----x--|
G|-11----10----11-|
C|----------------|

Key:
Palm Mute: -
Pinch Harmonic: *
Muted Note: x
Bend Note: b
Hammer On: h
Pull Off: p
Release: r
Tap to rate this tab
 
# A B C D E F G H I J K L M N O P Q R S T U V W X Y Z