Guitaretab - guitar tabs
Song name
# A B C D E F G H I J K L M N O P Q R S T U V W X Y Z

Killswitch Engage - Aojb Studio Out Takes tab

Okay this is a short outtake thing off Alive or Just Breathing Disc 2. Hope you like it.

Theres a lil fiddling in the background

"Another One Bites the Dust" Bit
D|-----------------------------------------------|
A|-----------------------------------------------|
F|-----------------------------------------------|
C|-----------------------------------------------|
G|-0-0-0-0-0-0-0-0-0--0--0--0-0---0-0-0-0-3-0-5--|
C|-0-0-0-0-0-0-0-0-0--0--0--0-0---0-0-0-0-3-0-5--|
   pm--------------------------------------------|

They muck around a bit here

"Just Barely Brething" Part note: in different tuning
D|-----1-----------1------------------------------------------|
A|-------3-------3---2----------------------------------------|
F|---------2---2------3--------6-----6-----------5------------|
C|---0-------0---------0-----4---4----4-------3----3------3---|
G|-0---------0------------4--------4----4---3---3----3---3--3-|
C|-0----------------------4----------4------3----------3------|

D|----------------------------|
A|--8h10p8--8h10p8------------|
F|--8h10p8--8h10p8--9p7p5-----|
C|----------------------------|
G|----------------------------|
C|----------------------------|
[ Tab from: http://www.guitaretab.com/k/killswitch-engage/95178.html ]
D|------------------------------------------------------|
A|----------------------------------------------10v-----|
F|----7----------5----------3----------2----------------|
C|--5---5-5--3-3---3-3--1-1---1-1--0-0---0--------------|
G|------------------------------------------------------|
C|------------------------------------------------------|

"Japanese Commercial " Part
D|-----|---------------------------------------------------|
A|-3-3-|-3-5-7--10-7-3-5-2-2--3-5-7-10-7-10-13/14-13-12-10-|
F|-----|---------------------------------------------------|
C|-----|---------------------------------------------------|
G|-----|---------------------------------------------------|
C|-----|---------------------------------------------------|

D|------------------------------------------------|
A|-3-5-7--10-7-3-5-2-2---3-5-7-10-7-5-3-5/7-5-3-3-|
F|------------------------------------------------|
C|------------------------------------------------|
G|------------------------------------------------|
C|------------------------------------------------|
                         ^This part is a bit faster

Then theres a bit of feedback while Jesse does the japanese sounds

Part after Japanese Thing
D|---------------------------------|
A|---------------------------------|
F|---------------------------------|
C|---------------------------------|
G|-0-0--0-0----0-0-0-0-0-0-0--0-0--|
C|-0-0--0-0----0-0-0-0-0-0-0--0-0--|
   pm------------------------------|

Lyrics:
(Jesse)
Yayyyyyyyyyy
Yayyyy Yayyyy
Yayy Yayy Yayy

Tell me baby

Another one bites the dust, my friend

(Jesse)
[Japanese Thing]*

(Joel?)
It Sounds like your playing for a japanese commercial

(Jesse)
[Japanese Thing]*
----------------------------------
*These parts are just random jibberish
Related for Aojb Studio Out Takes tab
Advertisement will be closed in 10 seconds