Song name
# A B C D E F G H I J K L M N O P Q R S T U V W X Y Z

Killswitch Engage - End Of Heartache tab

-------------------------------------------------------------------------------
			     End Of Heartache
                            Killswitch Engage
-------------------------------------------------------------------------------
Tabbed by:Ives
Email:jules_ives@yahoo.com
No Lead.. For Newbies hahahah..
This Is our Version of Our Band.
Tuning:Drop C
[Intro]
e|-------------------------------------------------------------------------|
B|-------------------------------------------------------------------------|
G|---5~--------------3-5~-----------------------3--------------------------|
D|---5~--------------3-5~-----------------------3--------------------------|
A|---3~--------------1-3~-----------------------1--------------------------|
C|---0~--------------x-0~-----------------------x--------------------------|

[Verse]
e|-------------------------------------------------------------------------|
B|-------------------------------------------------------------------------|
G|--55555555555-555555555555-x-----------555555555555-555555555555-x-------|
D|--55555555555-555555555555-x-----------555555555555-555555555555-x-------|
A|--33333333333-333333333333-x-6p5-1/3---333333333333-555555555555-x-6p5-1~|
C|--00000000000-000000000000-x-----------000000000000-555555555555-x-------|
    Seek me.....                         Call Me......              I'll Be
e|-------------------------------------------------------------------------|
B|-------------------------------------------------------------------------|
G|--22222222222-222222222222-x-----------222222222222-222222222222-x-------|
D|--22222222222-222222222222-x-----------222222222222-222222222222-x-------|
A|--00000000000-000000000000-x-6p5-1/3---000000000000-000000000000-x--1-3-3|
C|--00000000000-000000000000-x-----------000000000000-000000000000-x-------|
  Waiting....

e|-------------------------------------------------------------------------|
B|-------------------------------------------------------------------------|
G|--55555555555-555555555555-x-----------555555555555-555555555555-x-------|
D|--55555555555-555555555555-x-----------555555555555-555555555555-x-------|
A|--33333333333-333333333333-x-6p5-1/3---333333333333-555555555555-x-6p5-1~|
C|--00000000000-000000000000-x-----------000000000000-555555555555-x-------|
    Seek me.....                         Call Me......              I'll Be
e|-------------------------------------------------------------------------|
B|-------------------------------------------------------------------------|
G|--22222222222-222222222222-x-----------222222222222-222222222222-x-------|
D|--22222222222-222222222222-x-----------222222222222-222222222222-x-------|
A|--00000000000-000000000000-x-6p5-1/3---000000000000-000000000000-x--1-3-3|
C|--00000000000-000000000000-x-----------000000000000-000000000000-x-------|
  Waiting....

e|--------------------------------------------------------------------|-r--|
B|--------------------------------------------------------------------|-e--|
G|--555555555555555555555555-53--55555555555555555555555--87----------|-p--|
D|--555555555555555555555555-53--55555555555555555555555--87----------|-e--|
A|--333333333333333333333333-31--33333333333333333333333--65----------|-a--|
C|--000000000000000000000000-00--00000000000000000000000--00----------|-t--|
    Heaaaaaahhhhhh..........................................

[Verse]
e|-------------------------------------------------------------------------|
B|-------------------------------------------------------------------------|
G|--55555555555-555555555555-x-----------555555555555-555555555555-x-------|
D|--55555555555-555555555555-x-----------555555555555-555555555555-x-------|
A|--33333333333-333333333333-x-6p5-1/3---333333333333-555555555555-x-6p5-1~|
C|--00000000000-000000000000-x-----------000000000000-555555555555-x-------|
    This Distance....                    This Dissolution....
e|-------------------------------------------------------------------------|
B|-------------------------------------------------------------------------|
G|--22222222222-222222222222-x-----------222222222222-222222222222-x-------|
D|--22222222222-222222222222-x-----------222222222222-222222222222-x-------|
A|--00000000000-000000000000-x-6p5-1/3---000000000000-000000000000-x--1-3-3|
C|--00000000000-000000000000-x-----------000000000000-000000000000-x-------|
    I cling to memories.....                              while Falling.....

e|-------------------------------------------------------------------------|
B|-------------------------------------------------------------------------|
G|--55555555555-555555555555-x-----------555555555555-555555555555-x-------|
D|--55555555555-555555555555-x-----------555555555555-555555555555-x-------|
A|--33333333333-333333333333-x-6p5-1/3---333333333333-555555555555-x-6p5-1~|
C|--00000000000-000000000000-x-----------000000000000-555555555555-x-------|
    Sleep Brings Release...                       and the hope of a new day
e|-------------------------------------------------------------------------|
B|-------------------------------------------------------------------------|
G|--22222222222-222222222222-x-----------222222222222-222222222222-x-------|
D|--22222222222-222222222222-x-----------222222222222-222222222222-x-------|
A|--00000000000-000000000000-x-6p5-1/3---000000000000-000000000000-x--1-3-3|
C|--00000000000-000000000000-x-----------000000000000-000000000000-x-------|
    Waking the misery ........                         of being without you
e|--------------------------------------------------------------------|-r--|
B|--------------------------------------------------------------------|-e--|
G|--555555555555555555555555-53--55555555555555555555555--87----------|-p--|
D|--555555555555555555555555-53--55555555555555555555555--87----------|-e--|
A|--333333333333333333333333-31--33333333333333333333333--65----------|-a--|
C|--000000000000000000000000-00--00000000000000000000000--00----------|-t--|
                 Surrender,                        I give in
            Another moment               is another eternity
[Chorus]
e|-------------------------------------------------------------------------|
B|-------------------------------------------------------------------------|
G|--555555555555555-333333333333-/---12-12-12-10-10-10-8-8-8-8-7-7-7-7-----|
D|--555555555555555-333333333333-/---12-12-12-10-10-10-8-8-8-8-7-7-7-7-----|
A|--333333333333333-111111111111-/---10-10-10-8--8--8--6-6-6-6-5-5-5-5-----|
C|--000000000000000-000000000000-/---x--x--x--x--x--x--x-x-x-x-x-x-x-x-----|
    For Comfort... For Solace..      For the end of my Broken Heart.
(Seek Me)      (Call Me)         (I'll Be Waiting)

e|-------------------------------------------------------------------------|
B|-------------------------------------------------------------------------|
G|--555555555555555-333333333333-/---12-12-12-10-10-10-8-8-8-8-7-7-7-7-----|
D|--555555555555555-333333333333-/---12-12-12-10-10-10-8-8-8-8-7-7-7-7-----|
A|--333333333333333-111111111111-/---10-10-10-8--8--8--6-6-6-6-5-5-5-5-----|
C|--000000000000000-000000000000-/---x--x--x--x--x--x--x-x-x-x-x-x-x-x-----|
    Completion      I'll Be Waiting      For the end of my Broken Heart.
(Seek Me)      (Call Me)         (I'll Be Waiting)

[Adlib]
e|-------------------------------------------------------------------------|
B|-------------------------------------------------------------------------|
G|--55555555555-555555555555-x-----------555555555555-555555555555-x-------|
D|--55555555555-555555555555-x-----------555555555555-555555555555-x-------|
A|--33333333333-333333333333-x-6p5-1/3---333333333333-555555555555-x-6p5-1~|
C|--00000000000-000000000000-x-----------000000000000-555555555555-x-------|
                           
e|-------------------------------------------------------------------------|
B|-------------------------------------------------------------------------|
G|--22222222222-222222222222-x-----------222222222222-222222222222-x-------|
D|--22222222222-222222222222-x-----------222222222222-222222222222-x-------|
A|--00000000000-000000000000-x-6p5-1/3---000000000000-000000000000-x--1-3-3|
C|--00000000000-000000000000-x-----------000000000000-000000000000-x-------|
  

[Verse]
e|-------------------------------------------------------------------------|
B|-------------------------------------------------------------------------|
G|--55555555555-555555555555-x-----------555555555555-555555555555-x-------|
D|--55555555555-555555555555-x-----------555555555555-555555555555-x-------|
A|--33333333333-333333333333-x-6p5-1/3---333333333333-555555555555-x-6p5-1~|
C|--00000000000-000000000000-x-----------000000000000-555555555555-x-------|
           You know me,                         you know me all too well

e|-------------------------------------------------------------------------|
B|-------------------------------------------------------------------------|
G|--22222222222-222222222222-x-----------222222222222-222222222222-x-------|
D|--22222222222-222222222222-x-----------222222222222-222222222222-x-------|
A|--00000000000-000000000000-x-6p5-1/3---000000000000-000000000000-x--1-3-3|
C|--00000000000-000000000000-x-----------000000000000-000000000000-x-------|
    My only desire -                     to bridge our division

e|--------------------------------------------------------------------|-r--|
B|--------------------------------------------------------------------|-e--|
G|--555555555555555555555555-53--55555555555555555555555--87----------|-p--|
D|--555555555555555555555555-53--55555555555555555555555--87----------|-e--|
A|--333333333333333333333333-31--33333333333333333333333--65----------|-a--|
C|--000000000000000000000000-00--00000000000000000000000--00----------|-t--|
                In sorrow ,                    I speak your name            
        And my voice mirrors                  mirrors my torment
[Chorus] 
e|-------------------------------------------------------------------------|
B|-------------------------------------------------------------------------|
G|--555555555555555-333333333333-/---12-12-12-10-10-10-8-8-8-8-7-7-7-7-----|
D|--555555555555555-333333333333-/---12-12-12-10-10-10-8-8-8-8-7-7-7-7-----|
A|--333333333333333-111111111111-/---10-10-10-8--8--8--6-6-6-6-5-5-5-5-----|
C|--000000000000000-000000000000-/---x--x--x--x--x--x--x-x-x-x-x-x-x-x-----|
    For Comfort... For Solace..      For the end of my Broken Heart.
(Seek Me)      (Call Me)         (I'll Be Waiting)

e|-------------------------------------------------------------------------|
B|-------------------------------------------------------------------------|
G|--555555555555555-333333333333-/---12-12-12-10-10-10-8-8-8-8-7-7-7-7-----|
D|--555555555555555-333333333333-/---12-12-12-10-10-10-8-8-8-8-7-7-7-7-----|
A|--333333333333333-111111111111-/---10-10-10-8--8--8--6-6-6-6-5-5-5-5-----|
C|--000000000000000-000000000000-/---x--x--x--x--x--x--x-x-x-x-x-x-x-x-----|
    Completion      I'll Be Waiting      For the end of my Broken Heart.
(Seek Me)      (Call Me)         (I'll Be Waiting)

[Breakdown]
e|-------------------------------------------------------------------------|
B|-------------------------------------------------------------------------|
G|--555-55555-88888\77777-----555-55555-88888\77777------------------------|
D|--555-55555-88888\77777-----555-55555-88888\77777------------------------|
A|--333-33333-66666\55555-----333-33333-66666\55555------------------------|
C|--000-00000-00000\00000-----000-00000-00000\00000------------------------|
    Am I breathing?           My strength fails me

e|-------------------------------------------------------------------------|
B|-------------------------------------------------------------------------|
G|--55555555-88888\77777-----55555555-88888\77777--------------------------|
D|--55555555-88888\77777-----55555555-88888\77777--------------------------|
A|--33333333-66666\55555-----33333333-66666\55555--------------------------|
C|--00000000-00000\00000-----00000000-00000\00000--------------------------|
    Your picture             a bitter memory

[Chorus] 
e|-------------------------------------------------------------------------|
B|-------------------------------------------------------------------------|
G|--555555555555555-333333333333-/---12-12-12-10-10-10-8-8-8-8-7-7-7-7-----|
D|--555555555555555-333333333333-/---12-12-12-10-10-10-8-8-8-8-7-7-7-7-----|
A|--333333333333333-111111111111-/---10-10-10-8--8--8--6-6-6-6-5-5-5-5-----|
C|--000000000000000-000000000000-/---x--x--x--x--x--x--x-x-x-x-x-x-x-x-----|
    For Comfort... For Solace..      For the end of my Broken Heart.
(Seek Me)      (Call Me)         (I'll Be Waiting)

e|-------------------------------------------------------------------------|
B|-------------------------------------------------------------------------|
G|--555555555555555-333333333333-/---12-12-12-10-10-10-8-8-8-8-7-7-7-7-----|
D|--555555555555555-333333333333-/---12-12-12-10-10-10-8-8-8-8-7-7-7-7-----|
A|--333333333333333-111111111111-/---10-10-10-8--8--8--6-6-6-6-5-5-5-5-----|
C|--000000000000000-000000000000-/---x--x--x--x--x--x--x-x-x-x-x-x-x-x-----|
    Completion      I'll Be Waiting      For the end of my Broken Heart.
(Seek Me)      (Call Me)         (I'll Be Waiting)

| /  slide up
| \  slide down
| h  hammer-on
| p  pull-off
| ~  vibrato
| +  harmonic
| x  Mute note
===============================================================================
Tap to rate this tab
 
# A B C D E F G H I J K L M N O P Q R S T U V W X Y Z