Song name
# A B C D E F G H I J K L M N O P Q R S T U V W X Y Z

Killwhitneydead - She Didnt Look Like She Had A Disease tab

Artist: Killwhitneydead
Album: Never good enough for you
Song: She didnt look like she had a disease


* = palm mute

|---------------------|
|---------------------|
|---------------------|
|---------5--00000----|(11X)
|---------3--00000----|
|---5-3p0----00000----|
             *****

and on the 12th time do this

|---------------------|
|---------------------|
|---------------------|
|---------555-5555----|
|---------333-3333----|
|---5-3p0-------------|
             
then go back to this

|---------------------|
|---------------------|
|---------------------|
|---------5--00000----|(7X)
|---------3--00000----|
|---5-3p0----00000----|
             *****

then guitar 1 does this

|---------------------|
|---------------------|
|---------------------|
|---------555-5555----|
|---------333-3333----|
|---5-3p0-------------|

and guitar 2 does this

|---------------------|
|---------------------|
|---------------------|
|---------------------|
|---------------------|
|slide-from-9-to-0----|

and then this

|--------------------------------|
|--------------------------------|
|--------------------------------|
|---------5--------5----00000----|(8X)
|---------3--------3----00000----|
|---5-3p0----5-3p0------00000----|
                        *****
and on the 8th time end on

|D---0---|
|A---0---|
|D---0---|

"you must die"

|--------------------------------|
|--------------------------------|
|--------------------------------|
|--------------------------------|
|--------------------------------|
|--5-3-0-3-2-0----5-3-0-3-2-0----|
   * * * * * *    * * * * * *
Tap to rate this tab
# A B C D E F G H I J K L M N O P Q R S T U V W X Y Z