Song name
# A B C D E F G H I J K L M N O P Q R S T U V W X Y Z

Killwhitneydead - Bitterness Is A Beautiful Thing tab

Killwhitneydead
Bitterness Is A Beautiful Thing

tuning: Drop B



                          x7
|---------|----------------|-----------------|
|---------|----------------|-----------------|
|---------|----------------|-----------------|
|-4-------|--2---5---4-----|--2---5---2------|
|-4-------|--2---5---4-----|--2---5---2------|
|-4-------|--2---5---4-----|--2---5---2------|

            x16
|------------|-----------------------------------------------------|
|------------|-----------------------------------------------------|
|------------|-----------------------------------------------------|
|------------|-----------------------------------------------------|
|-2233-------|-3h4p3-4h5p4-5h6p5-6h7p6-7h8p7-8h9p8-9h10p9-10h11p10-|
|-----554422-|-----------------------------------------------------|

             x16              x16
|-------------|----------------|---|
|-------------|----------------|---|
|-------------|----------------|---|
|-------------|----------------|-2-|
|-3h4p3-------|----------------|-2-|
|-------5-4-2-|-2222-55-44-22--|-2-|

breakdown/solo rhythm
|----------------------------------------|
|----------------------------------------|
|----------------------------------------|
|-2222-222--2222-222--2222-222--2222-222-|
|-2222-222--2222-222--2222-222--2222-222-|
|-2222-222--2222-222--2222-222--2222-222-|

solo	     			                                        x2
|-161213121312-161213121312-16121312--171213121312-171213121312-17121312-|-21^-|
|------------------------------------------------------------------------|-----|
|------------------------------------------------------------------------|-----|
|------------------------------------------------------------------------|-----|
|------------------------------------------------------------------------|-----|
|------------------------------------------------------------------------|-----|
                         x2
|-19-12-19-19-12-19-19-12-|-15^-|
|-------------------------|-----|
|-------------------------|-----|
|-------------------------|-----|
|-------------------------|-----|
|-------------------------|-----|
                         x2
|-19-12-19-19-12-19-19-12-|-14^-|
|-------------------------|-----|
|-------------------------|-----|
|-------------------------|-----|
|-------------------------|-----|
|-------------------------|-----|

|----------------|
|-------------18-|
|-16-17-20-21----| play each note here x16
|----------------|
|----------------|
|----------------|
Tap to rate this tab
 
# A B C D E F G H I J K L M N O P Q R S T U V W X Y Z