Guitaretab - guitar tabs
Song name
# A B C D E F G H I J K L M N O P Q R S T U V W X Y Z

Killwhitneydead - Like You Didnt Hear Me The First Time tab

Killwhitneydead Ė Like You Didnít Hear Me the First Time

Tabbed By: Nirvanaboy183

Drop C#

There is quite a bit of random noise and feedback in the intro so just let the open C# 
ring back a bit.

Intro
Gtr1
D#|-------------------------------------------------------------------------|
A#|-------------------------------------------------------------------------|
F#|-------------------------------------------------------------------------|
C#|--0~---------------------------------------------------------------------|
G#|--0~---------------------------------------------------------------------|
C#|--0~---------------------------------------------------------------------|

Gtr2
D#|-------------------------------------------------------------------------|
A#|----10-------10-10-10-10-10-10-10-10-10-10-10-10-10----------------------|
F#|----12b(14)--14-14-14-14-14-14-14-14-14-14-14-14-14----------------------|
C#|-------------------------------------------------------------------------|
G#|-------------------------------------------------------------------------|
C#|-------------------------------------------------------------------------|

Riff1
D#|--------------------------------------------------------------------------------|
A#|--------------------------------------------------------------------------------|
F#|--------------------------------------------------------------------------------|
C#|00000000-6-00-5-003-00000000-6-00-5-003-00000000-6-00-5-003-00000000-6-00-5-003-|
G#|00000000-6-00-5-003-00000000-6-00-5-003-00000000-6-00-5-003-00000000-6-00-5-003-|
C#|00000000-6-00-5-003-00000000-6-00-5-003-00000000-6-00-5-003-00000000-6-00-5-003-|
Pm ........   ..   ..  ........   ..   ..  ........   ..   ..  ........   ..   ..
[ Tab from: http://www.guitaretab.com/k/killwhitneydead/110130.html ]
Riff2 x2
D#|--------------------------------------------------------------------------------|
A#|--------------------------------------------------------------------------------|
F#|--------------------------------------------------------------------------------|
C#|----------------------------320320320320320320320320320320320320320320320320----|
G#|--------------------------------------------------------------------------------|
C#|88888555557777733333-2p02p0-----------------------------------------------------|

Riff3
Gtr1
D#|--------------------------------------------------------------------------------|
A#|--------------------------------------------------------------------------------|
F#|--------------------------------------------------------------------------------|
C#|------------------------------0-0-0-0-0-0-0-0-0---------------------------------|
G#|------------------------------0-0-0-0-0-0-0-0-0---------------------------------|
C#|88888555557777733333-2p02p0---0-0-0-0-0-0-0-0-0---------------------------------|
Pm                               . . . . . . . . .

Gtr2
D#|--------------------------------------------------------------------------------|
A#|--------------------------------------------------------------------------------|
F#|--------------------------------------------------------------------------------|
C#|-------------------------------0-0-0-0-0-0-0-0----------------------------------|
G#|-------------------------------0-0-0-0-0-0-0-0----------------------------------|
C#|88888555557777733333-2p02p0----0-0-0-0-0-0-0-0----------------------------------|
Pm                                . . . . . . . .

Riff1 x3
D#|--------------------------------------------------------------------------------|
A#|--------------------------------------------------------------------------------|
F#|--------------------------------------------------------------------------------|
C#|00000000-6-00-5-003-00000000-6-00-5-003-00000000-6-00-5-003-00000000-6-00-5-003-|
G#|00000000-6-00-5-003-00000000-6-00-5-003-00000000-6-00-5-003-00000000-6-00-5-003-|
C#|00000000-6-00-5-003-00000000-6-00-5-003-00000000-6-00-5-003-00000000-6-00-5-003-|
Pm ........   ..   ..  ........   ..   ..  ........   ..   ..  ........   ..   ..
Related for Like You Didnt Hear Me The First Time tab