Guitaretab - guitar tabs
Song name
# A B C D E F G H I J K L M N O P Q R S T U V W X Y Z

Killwhitneydead - You Will Get Exactly What You Deserve tab

Killwhitneydead  You Will Get Exactly What You Deserve

Tabbed By: Nirvanaboy183

Drop C#

Intro
Gtr1
D#|--------------------------------------------------------------------------------------------|
A#|--------------------------------------------------------------------------------------------|
F#|-7-10-910----------------7--10-910----------------7--10-910---------------7--10-910--------|
C#|-7-10-910----------------7--10-910----------------7--10-910---------------7--10-910--------|
G#|-5--8--78-----------------5--8--78-----------------5--8--78----------------5--8--78---------|
C#|----------00-000-00-000------------00-000-00-000------------00-000-00-000-------------------|
Pm           .. ... .. ...            .. ... .. ...            .. ... .. ...

Gtr2
D#|--------------------------------------------------------------------------------------------|
A#|--------------------------------------------------------------------------------------------|
F#|-7-10-910----------------7--10-910----------------7--10-910---------------7--10-910--------|
C#|-7-10-910----------------7--10-910----------------7--10-910---------------7--10-910--------|
G#|-5--8--78-----------------5--8--78-----------------5--8-78----------------5--8--78---------|
C#|--------------------------------------------------------------------------------------------|


Riff1
Both Guitars x4
D#|-------------------------------------------------------------------------|
A#|-------------------------------------------------------------------------|
F#|-----------------7--10-910---------------7--10-910-----------------------|
C#|-----------------7--10-910---------------7--10-910-----------------------|
G#|--00-000-00-000--5--8--78--00-000-00-000-5--8--78------------------------|
C#|--00-000-00-000------------00-000-00-000---------------------------------|
Pm   .. ... .. ...            .. ... .. ...

[ Tab from: http://www.guitaretab.com/k/killwhitneydead/110132.html ]
Gtr1
D#|----------------------------|
A#|----------------------------|
F#|-----------------7--10-910--|
C#|-----------------7--10-910--|
G#|-----------------5--8--78---|
C#|--00-000-00-000-------------|
Pm   .. ... .. ...

Gtr2
D#|----------------------------|
A#|----------------------------|
F#|-----------------7--10-910--|
C#|-----------------7--10-910--|
G#|-----------------5--8--78---|
C#|----------------------------|


Riff1
Both Guitars x4
D#|-------------------------------------------------------------------------|
A#|-------------------------------------------------------------------------|
F#|-----------------7--10-910---------------7--10-910-----------------------|
C#|-----------------7--10-910---------------7--10-910-----------------------|
G#|--00-000-00-000--5--8--78--00-000-00-000-5--8--78------------------------|
C#|--00-000-00-000------------00-000-00-000---------------------------------|
Pm   .. ... .. ...            .. ... .. ...


Ending
Gtr1
D#|----------------------------------|
A#|----------------------------------|
F#|-----------------7--10-910--------|
C#|-----------------7--10-910--0~----|
G#|-----------------5--8--78---0~----|
C#|--00-000-00-000-------------0~----|
Pm   .. ... .. ...

Gtr2
D#|----------------------------------|
A#|----------------------------------|
F#|-----------------7--10-910--------|
C#|-----------------7--10-910--0~----|
G#|-----------------5--8--78---0~----|
C#|----------------------------0~----|


D#|---------------------------------------------------------|
A#|---------------------------------------------------------|
F#|---------------------------------------------------------|
C#|--00---00---00---00---00---00--00--00--00--00--00--00----|
G#|--00---00---00---00---00---00--00--00--00--00--00--00----|
C#|--00---00---00---00---00---00--00--00--00--00--00--00----|
Pm   ..   ..   ..   ..   ..   ..  ..  ..  ..  ..  ..  ..


End riff x8
D#|--------------------|
A#|--------------------|
F#|--------------------|
C#|-5/--00--000--------|
G#|-5/--00--000--------|
C#|-5/--00--000--------|
Pm      ..  ...

D#|--------------------|
A#|--------------------|
F#|--------------------|
C#|-5/--00-------------|
G#|-5/--00-------------|
C#|-5/--00-------------|
Pm      ..
Related for You Will Get Exactly What You Deserve tab