Song name
# A B C D E F G H I J K L M N O P Q R S T U V W X Y Z

Killwhitneydead - It Aint Gonna Suck Itself tab

                           IT AIN'T GONNA SUCK ITSELF
                         As recorded by Killwhitneydead.
                 (From the 2004 Album NEVER GOOD ENOUGH FOR YOU)

Words by Matt Rudzinski

Music by Killwhitneydead.
Transcribed by Patsyxcore

Gtr I (Db Gb B E Ab Db) - 'Left'
Gtr II (Db Gb B E Ab Db) - 'Right'
Gtr III (Db Gb B E Ab Db) - 'Center [Quiet]'

 Intro
  Q=109
  N.C.
 4/4
  Gtrs I, II
  Wx2
|--------||
|--------||
|--------||
|--------||
|--------||
|--------||


   "Here's to pretty..."
    E5
    E E E E H      W          E E E E H      W
||---------------|----------|--------------|-------||
||o--------------|----------|--------------|------o||
||---------------|----------|--------------|-------||
||---------------|----------|--------------|-------||
||o-2---2--------|----------|-2---2--------|------o||
||--0---0--------|----------|-0---0--------|-------||


 In between talking thing
  N.C.
  Wx5
|--------||
|--------||
|--------||
|--------||
|--------||
|--------||


   "Let's break the..."
    Q=141
    E5
    E E E Q  E E E   E E E H    E   E E E Q  E E E   E E E H    E   3x
||-----------------|--------------|----------------|----------------||
||o----------------|--------------|----------------|---------------o||
||-----------------|--------------|----------------|----------------||
||-----------------|--------------|----------------|----------------||
||o-2-2-2----2-2-2-|-2-2-2--------|-2-2-2----2-2-2-|-2-2-2---------o||
||--0-0-0----0-0-0-|-0-0-0--------|-0-0-0----0-0-0-|-0-0-0----------||


  E5
  E E E Q  E E E   E E E H    E   E E E Q  E E E   E E E H    E
|----------------|--------------|----------------|--------------||
|----------------|--------------|----------------|--------------||
|----------------|--------------|----------------|--------------||
|----------------|--------------|----------------|--------------||
|-2-2-2----2-2-2-|-2-2-2--------|-2-2-2----2-2-2-|-2-2-2------2-||
|-0-0-0----0-0-0-|-0-0-0--------|-0-0-0----0-0-0-|-0-0-0------0-||


 Outro
  E5
  W          +W           +W           +W
|----------|------------|------------|--------|
|----------|------------|------------|--------|
|----------|------------|------------|--------|
|-2--------|-(2)--------|-(2)--------|-(2)----|
|-2--------|-(2)--------|-(2)--------|-(2)----|
|-0--------|-(0)--------|-(0)--------|-(0)----|


  E5
  Gtr III
   W            +W             +W             +W
|------------|--------------|--------------|----------|
|------------|--------------|--------------|----------|
|------------|--------------|--------------|----------|
|--2---------|--(2)---------|--(2)---------|--(2)-----|
|--2---------|--(2)---------|--(2)---------|--(2)-----|
|--0---------|--(0)---------|--(0)---------|--(0)-----|
|
| Gtr I
|  <                                           >
|  W            +W             +W             +W
|------------|--------------|--------------|----------|
|------------|--------------|--------------|----------|
|-<5>--------|-(<5>)--------|-(<5>)--------|-(<5>)----|
|------------|--------------|--------------|----------|
|------------|--------------|--------------|----------|
|------------|--------------|--------------|----------|
|
| Gtr II
|  <                                           >
|  W            +W             +W             +W
|------------|--------------|--------------|----------|
|-<7>--------|-(<7>)--------|-(<7>)--------|-(<7>)----|
|------------|--------------|--------------|----------|
|------------|--------------|--------------|----------|
|------------|--------------|--------------|----------|
|------------|--------------|--------------|----------|


  Q=116
  N.C.
    E   E E S E E S E E     E   E E S E E S E E
|-----------------------|-----------------------|
|-----------------------|-----------------------|
|-----------------------|-----------------------|
|-----------------------|-----------------------|
|---3---5-6-3-5-6-3-5-6-|-------------------6-5-|
|-----------------------|---4---6-8-4-6-8-4-----|
|
|   >
|  +W                      +W
|-----------------------|-----------------------|
|-----------------------|-----------------------|
|-(<5>)-----------------|-(<5>)-----------------|
|-----------------------|-----------------------|
|-----------------------|-----------------------|
|-----------------------|-----------------------|
|
|   >
|  +W                      +W
|-----------------------|-----------------------|
|-(<7>)-----------------|-(<7>)-----------------|
|-----------------------|-----------------------|
|-----------------------|-----------------------|
|-----------------------|-----------------------|
|-----------------------|-----------------------|


    E   E E S E E S E E   E S S E S S S E S S E S
|-----------------------|---------------------------|
|-----------------------|---------------------------|
|-----------------------|---------------------------|
|-----------------------|---------------------------|
|---3---5-6-3-5-6-3-5-6-|-------------------6---5---|
|-----------------------|-4---6-8-4---6-8-4---------|
|
|  +W                     W
|-----------------------|---------------------------|
|-----------------------|---------------------------|
|-(<5>)-----------------|---------------------------|
|-----------------------|---------------------------|
|-----------------------|---------------------------|
|-----------------------|---------------------------|
|
|  +W                     W
|-----------------------|---------------------------|
|-(<7>)-----------------|---------------------------|
|-----------------------|---------------------------|
|-----------------------|---------------------------|
|-----------------------|---------------------------|
|-----------------------|---------------------------|


  N.C.
  S S E E S S S S S S Q    Wx2
|------------------------|--------*|
|------------------------|--------*|
|------------------------|--------*|
|------------------------|--------*|
|-3---5-6-3---5---6------|--------*|
|------------------------|--------*|


Duration Legend
---------------
W - whole; H - half; Q - quarter; E - 8th; S - 16th; T - 32nd; X - 64th; a - acciaccatura
+ - note tied to previous; . - note dotted; .. - note double dotted
Uncapitalized letters represent notes that are staccato (1/2 duration)
Irregular groupings are notated above the duration line
Duration letters will always appear directly above the note/fret number it represents the
duration for.  Duration letters with no fret number below them represent rests.  Multi-
bar rests are notated in the form Wxn, where n is the number of bars to rest for.  Low
melody durations appear below the staff

Tablature Legend
----------------
 h   - hammer-on
 p   - pull-off
 b   - bend
 pb  - pre-bend
 r   - bend release (if no number after the r, then release immediately)
 /\  - slide into or out of (from/to "nowhere")
 s   - legato slide
 S   - shift slide
  - natural harmonic
[n]  - artificial harmonic
n(n) - tapped harmonic
 ~   - vibrato
 tr  - trill
 T   - tap
 TP  - trem. picking
 PM  - palm muting
\n/  - tremolo bar dip; n = amount to dip
 \n  - tremolo bar down
 n/  - tremolo bar up
/n\  - tremolo bar inverted dip
 =   - hold bend; also acts as connecting device for hammers/pulls
 <>  - volume swell (louder/softer)
 x   - on rhythm slash represents muted slash
 o   - on rhythm slash represents single note slash

Misc Legend
-----------
 |  - bar
||  - double bar
||o - repeat start
o|| - repeat end
*|  - double bar (ending)
 :  - bar (freetime)
 $  - Segno
 &  - Coda
Tempo markers -  = BPM(8/16=s8/s16), where s8 = swing 8ths, s16 = swing 16th
Tap to rate this tab
 
# A B C D E F G H I J K L M N O P Q R S T U V W X Y Z