Song name
# A B C D E F G H I J K L M N O P Q R S T U V W X Y Z

Killwhitneydead - Put A Sock In It tab

drop B


intro
|--------|
|--------|
|--------|
|-2--5-4-|
|-2--3-2-|
|-2------|

verse                                  x8
|--------------------------------------|
|--------------------------------------|
|--------------------------------------|
|------2222-11111111-------------------|
|--------------------33333333-22222222-|
|-2222---------------------------------|

chorus                                                     x3
|-----------------------------------------------------------|
|-----------------------------------------------------------|
|-----------------------------------------------------------|
|-----------------------------------------------------------|
|----------7*----------------7*----------7*-----------------|
|-22222222----22222-22222222----22222222----22222-22222222--|

|--------------------------------------------------------------|
|--------------------------------------------------------------|
|--------------------------------------------------------------|
|----------------------------------------------------------5-4-|
|----------7*----------------7*----------7*----------------3-2-|
|-22222222----22222-22222222----22222222----22222-22222222-----|

solo (play verse riff x4 underneath)

verse                                  x4
|--------------------------------------|
|--------------------------------------|
|--------------------------------------|
|------2222-11111111-------------------|
|--------------------33333333-22222222-|
|-2222---------------------------------|

breakdown           x4
|-------------------|---|
|-------------------|---|
|-----4-3-----------|---|
|-2---2-1--5--4-222-|-2-|
|-2--------3--2-222-|-2-|
|-2-------------222-|-2-|

outro                                                            x2
|-----------------------------------------------------------------|---|
|-----------------------------------------------------------------|---|
|-----------------------------------------------------------------|---|
|-------------------------------------------------------------5-4-|-2-|
|-------------------------------------------------------------3-2-|-2-|
|-22222222----22222-22222222----22222222----22222-22222222--------|-2-|
                             x4                           
|-----------------------------|
|-----------------------------|
|-----------------------------|
|-----------------------------|
|-----------------------------|
|-22222222----22222-22222222--|
                                                                 x2
|-----------------------------------------------------------------|---|
|-----------------------------------------------------------------|---|
|-----------------------------------------------------------------|---|
|-------------------------------------------------------------5-4-|-2-|
|-------------------------------------------------------------3-2-|-2-|
|-22222222----22222-22222222----22222222----22222-22222222--------|-2-|
Tap to rate this tab
# A B C D E F G H I J K L M N O P Q R S T U V W X Y Z