Song name
# A B C D E F G H I J K L M N O P Q R S T U V W X Y Z

Kim Chiu - Crazy Love tab

CRAZY LOVE by KIM CHIU
Tabbed by: Rakizta_Ralph
Email: fast_break20@yahoo.com.ph (friendster.com)

INTRO:


GUITAR_1
e|---------------------------------------0----|
B|---------------------------------------10---|
G|---------------------------------------9----|
D|--------------11--------------9--------9----|
A|--12----------11--------------9--------0----|
E|--12----------------------------------------|

GUITAR_2
e|-------12------------12----9~---------------|
B|--9h10----12~---9h10----12------------------|
G|-------------------------------11p9-6h7-----|
D|--------------------------------------------|
A|--------------------------------------------|
E|--------------------------------------------|


GUITAR_1
e|---------------------|
B|---------------------|
G|---------------------|
D|-------11---9--------|
A|--12---11---9----7---|
E|--12-------------7---|

GUITAR_2
e|-------12------------12----9~--7---|
B|--9h10----12~---9h10----12-----9---|
G|-------------------------------9---|
D|-------------------------------9---|
A|-------------------------------7---|
E|-----------------------------------|

GUITAR_3
e|-----------------------------|
B|-------10-9------------------|
G|-----------------------9-----|
D|--9/11------11-9---6-7---9---|
A|-----------------------------|
E|-----------------------------|


CHORDS:A-C#m-Bm-E

		A					C#m
e|------------0--------------------|-----------------0------------------------|
B|------------2--------------------|-----------------5------------------------|
G|------------2--------------------|-----------------6------------------------|
D|------------2--------------------|-----------------6------------------------|
A|------------0--------------------|-----------------4------------------------|
E|---------------------------------|------------------------------------------|

  I hate da way u walk                hate da way u talk
		 Bm		   E
e|------------0-----|------0-----|
B|------------3-----|------0-----|
G|------------4-----|------1-----|
D|------------4-----|------2-----|
A|------------2-----|------2-----|
E|------------------|------0-----|
hate da way u look at me...

		A					C#m
e|------------0--------------------|-----------------0------------------------|
B|------------2--------------------|-----------------5------------------------|
G|------------2--------------------|-----------------6------------------------|
D|------------2--------------------|-----------------6------------------------|
A|------------0--------------------|-----------------4------------------------|
E|---------------------------------|------------------------------------------|
 I hate da way u smile                 hate those big brown eyes

		 Bm		             E
e|----------------------0-----|------0-----|
B|----------------------3-----|------0-----|
G|----------------------4-----|------1-----|
D|----------------------4-----|------2-----|
A|----------------------2-----|------2-----|
E|----------------------------|------0-----|

 'cause i know they're not 4 me!


Mid:
		D					C#m
e|------------0--------------------|-----------------0------------------------|
B|------------3--------------------|-----------------5------------------------|
G|------------2--------------------|-----------------6------------------------|
D|------------0--------------------|-----------------6------------------------|
A|---------------------------------|-----------------4------------------------|
E|---------------------------------|------------------------------------------|

     'cause we can never                             be
		 Bm		      E
e|------0-----|---------------0-----|
B|------3-----|---------------0-----|
G|------4-----|---------------1-----|
D|------4-----|---------------2-----|
A|------2-----|---------------2-----|
E|------------|---------------0-----|

      more then friends and hurts me

		D					C#m
e|------------0--------------------|-----------------0------------------------|
B|------------3--------------------|-----------------5------------------------|
G|------------2--------------------|-----------------6------------------------|
D|------------0--------------------|-----------------6------------------------|
A|---------------------------------|-----------------4------------------------|
E|---------------------------------|------------------------------------------|

       everytime i close my                       eyes

		 Bm		      E
e|------0-----|---------------0-----|
B|------3-----|---------------0-----|
G|------4-----|---------------1-----|
D|------4-----|---------------2-----|
A|------2-----|---------------2-----|
E|------------|---------------0-----|
      All i see is            u...

Chorus: A-F#m-Bm-E
And this crazy love, crazy love..oh this crazy love, crazy love...

GUITAR_2
e|-------12------------12----9~--7---|
B|--9h10----12~---9h10----12-----9---|
G|-------------------------------9---|
D|-------------------------------9---|
A|-------------------------------7---|
E|-----------------------------------|

		A					C#m
e|------------0--------------------|-----------------0------------------------|
B|------------2--------------------|-----------------5------------------------|
G|------------2--------------------|-----------------6------------------------|
D|------------2--------------------|-----------------6------------------------|
A|------------0--------------------|-----------------4------------------------|
E|---------------------------------|------------------------------------------|
I hate thinkin of u 'cause everytime i       do i just keep on

		 Bm		      E
e|------0-----|---------------0-----|
B|------3-----|---------------0-----|
G|------4-----|---------------1-----|
D|------4-----|---------------2-----|
A|------2-----|---------------2-----|
E|------------|---------------0-----|
     missing u.

		A					C#m
e|------------0--------------------|-----------------0------------------------|
B|------------2--------------------|-----------------5------------------------|
G|------------2--------------------|-----------------6------------------------|
D|------------2--------------------|-----------------6------------------------|
A|------------0--------------------|-----------------4------------------------|
E|---------------------------------|------------------------------------------|
And i hate da way i feel everytime ur              near 'cause it feels like

		 Bm		      E
e|------0-----|---------------0-----|
B|------3-----|---------------0-----|
G|------4-----|---------------1-----|
D|------4-----|---------------2-----|
A|------2-----|---------------2-----|
E|------------|---------------0-----|
   time is standing still...


Mid:
		D					C#m
e|------------0--------------------|-----------------0------------------------|
B|------------3--------------------|-----------------5------------------------|
G|------------2--------------------|-----------------6------------------------|
D|------------0--------------------|-----------------6------------------------|
A|---------------------------------|-----------------4------------------------|
E|---------------------------------|------------------------------------------|

     'cause we can never                             be
		 Bm		      E
e|------0-----|---------------0-----|
B|------3-----|---------------0-----|
G|------4-----|---------------1-----|
D|------4-----|---------------2-----|
A|------2-----|---------------2-----|
E|------------|---------------0-----|

      more then friends and hurts me

		D					C#m
e|------------0--------------------|-----------------0------------------------|
B|------------3--------------------|-----------------5------------------------|
G|------------2--------------------|-----------------6------------------------|
D|------------0--------------------|-----------------6------------------------|
A|---------------------------------|-----------------4------------------------|
E|---------------------------------|------------------------------------------|

       everytime i close my                       eyes

		 Bm		      E
e|------0-----|---------------0-----|
B|------3-----|---------------0-----|
G|------4-----|---------------1-----|
D|------4-----|---------------2-----|
A|------2-----|---------------2-----|
E|------------|---------------0-----|
      All i see is            u...


REPEAT CHORUS
DO CHORD PATTERN: A-C#m-Bm-E
I hate it when you're blue and how i cared 4 u..
i hate the way my heart decideds..And i hate those sleepless nights and the pain i kept 
but i keep on pretending its alright

Mid:
		D					C#m
e|------------0--------------------|-----------------0------------------------|
B|------------3--------------------|-----------------5------------------------|
G|------------2--------------------|-----------------6------------------------|
D|------------0--------------------|-----------------6------------------------|
A|---------------------------------|-----------------4------------------------|
E|---------------------------------|------------------------------------------|

     'cause we can never                             be
		 Bm		      E
e|------0-----|---------------0-----|
B|------3-----|---------------0-----|
G|------4-----|---------------1-----|
D|------4-----|---------------2-----|
A|------2-----|---------------2-----|
E|------------|---------------0-----|

      more then friends and hurts me

		D					C#m
e|------------0--------------------|-----------------0------------------------|
B|------------3--------------------|-----------------5------------------------|
G|------------2--------------------|-----------------6------------------------|
D|------------0--------------------|-----------------6------------------------|
A|---------------------------------|-----------------4------------------------|
E|---------------------------------|------------------------------------------|

       everytime i close my                       eyes

		 Bm		      E
e|------0-----|---------------0-----|
B|------3-----|---------------0-----|
G|------4-----|---------------1-----|
D|------4-----|---------------2-----|
A|------2-----|---------------2-----|
E|------------|---------------0-----|
      All i see is            u...

REPEAT CHORUS

I don't know what to do
Hate me for loving u
Coz I know it's wrong for
me to say...I love u

| /  slide up
| \  slide down
| h  hammer-on
| p  pull-off
| ~  vibrato
| +  harmonic
| x  Mute note
===============================================================================
Tap to rate this tab
 
# A B C D E F G H I J K L M N O P Q R S T U V W X Y Z