Song name
# A B C D E F G H I J K L M N O P Q R S T U V W X Y Z

Kim Churchill - Truest Intentions tab

Kim churchill        http://www.kimchurchill.com/
Truest intentions
===========================


Open D tuning.

I know its not exactly how he plays but... if it can help you to get some parts of this 
song, its already a begining.

I don't know how to tab the intro so... i'll start with the first verse.

---0--------------0---------0-------------------|
------------------------------------------------|
--0-0-0h1p0-0----5--5-5-5/7--7--7---------------|
-----------2------------------------------------|
------------------------------------------------|
-0---0-------0--5----5--5/7----7----------------|

Prechorus
---------------------|
---------------------|
5-------------7------|
5-------------7------|
5-------------7------|
5-------------7------|


Chorus: (x2)
---0-------0------------0-------------0-----------0--------0------|
------------------------------------------------------------------|
-0---0-0------0-0-----7-----7-7------7--7-7------5--5-5---5---5-5-|
------9--------9-------------7-----------7-----------5---------5--|
------------------------------------------------------------------|
9--------9---------7---------------7-----------5-------5----------|
                                                   Harm.
-----0------------0---------------             0----7-------------|
---------------4(let ring)-5------             0----7-------------|
---5-----5-5-----5-----5-5--------             7----7-------------|
----------5-------------5--------- Second time:7----7-------------|
----------------------------------             7----7-------------|
5--------------5------------------             7----7-------------|

I don't know the tapping part, if anybody knows it... tab it plz ?

Outro(slowly)
                    P.M.        Harm.       Harm.
----0----------------------------7----------12----------------------|
---------------------------------7----------12----------------------|
--0---0--0h1p0-0---5-5-------7---7----------12----------------------|
-------0------2------5-----------7----------12----------------------|
---------------------5-----------7----------12----------------------|
0--------0-------5---5-----7-----7----------12----------------------|

Lyrics :

Breaking my truest intentions,
Searching for intervention, in my life.
And searching, searching for true answers,
Oh this life it dances around my mind.

So lifting, lifting you up, so you could soar,
But my eyes couldn’t hold no more.

Chorus:

It is all you find.
You will break my mind, you see my words fall short.
You will see in time, words will realise,
You a path to greater ties.

Said biding, this life is about timing,
Searching but not finding, most of the time.

So working, this life’s not about shirking,
whatever wave, crumbles for me or you.

It is all you find.
You will break my mind, you see my words fall short.
And it burns. And it takes my heart to see,
so much light will shine down on me, down on me,
down on me.

Tapping part

It is all you find.
You will break my mind, you see my words fall short.
You will see in time, words will realize,
you a path to greater ties.

I know its not perfect but... its better then nothing!

Thx for the comments.
Tap to rate this tab
# A B C D E F G H I J K L M N O P Q R S T U V W X Y Z